Spill Canvas - Tide Chords & Tabs

 

Tide Chords & Tabs

Spill Canvas Chords & Tabs

Version: 2 Type: Tab 0 ratings
1 star 2 stars 3 stars 4 stars 5 stars
comments

Tide Tab

   
-------------------------------------------------------------------------------
     THE TIDE - The Spill Canvas
-------------------------------------------------------------------------------
Tabbed by: Dave M.
Email: okra107@hotmail.com

Capo on the 2nd fret! All chords relative to the capo.

Tuning: Standard

Listen to the song for the strumming pattern.

Intro:

e|-x--|
B|-x--|
G|-x--|  *Muted strumming. Listen to the song to get the rhythm.
D|-x--|
A|-x--|
E|-x--|

Verse:

e|-0----0---x---|
B|-0----0---x---|
G|-0----0---x---|  x2
D|-0h2--2---x---|
A|-0h2--2---x---|
E|-0----0---x---|
"And there's three..."

e|-0----0---|
B|-0----0---|
G|-7-/--5---|
D|-7-/--5---|
A|-5-/--3---|
E|-x----x---|

Fill-In:

e|-------------------------|
B|-------------------------|
G|-------------------------|
D|---------2p0--4p0--5p0---|
A|-2\3--3------------------|
E|-------------------------|

Pre-Chorus:
[ Tab from: http://www.guitartabs.cc/tabs/s/spill_canvas/tide_tab_ver_2.html ]
e|-0----0---|
B|-0----0---|
G|-7-\--9---|
D|-7-\--9---|
A|-5-\--7---|
E|-x----x---|
"And he can't understand..."

e|-0---|
B|-0---|
G|-5---|
D|-5---|
A|-3---|
E|-x---|
"Just how everyone..."

e|-0--0--0---|
B|-0--0--0---|
G|-0--0--5---|
D|-5--5--5---|
A|-5--5--3---|
E|-3--2--x---|
"Breathing when true love ends..."

e|-0---|
B|-0---|
G|-4---|
D|-4---|
A|-2---|
E|-x---|
"His mother whispers..."

Chorus:

e|-0---|
B|-0---|
G|-0---|
D|-2---|
A|-2---|
E|-0---|
"Heaven's not a place..."

e|-0---|
B|-0---|
G|-5---|
D|-5---|
A|-3---|
E|-x---|
"It's that moment in life..."

e|-0--0--0---|
B|-0--0--0---|
G|-0--0--5---|
D|-5--5--5---|
A|-5--5--3---|
E|-3--2--x---|
"Actually feel alive..."

e|-0---|
B|-0---|
G|-4---|
D|-4---|
A|-2---|
E|-x---|
"So live for the moment..."

---

That's it. Great song. Play it for chicks. :)

| /  slide up
| \  slide down
| h  hammer-on
| p  pull-off
| ~  vibrato
| +  harmonic
| x  Mute note
===============================================================================
Comments