Spill Canvas - This Is For Keeps Chords & Tabs

 

This Is For Keeps Chords & Tabs

Spill Canvas Chords & Tabs

Version: 1 Type: Tab

This Is For Keeps Tab

   
Artist: The Spill Canvas
Album: One Fell Swoop
Song: This Is For Keeps
Tabbed By: Deadlights


  Tune guitar 1/2 step down.


Intro:
(0:14)    (0:21)
eb|---|   eb|-0-|
Bb|---|   Bb|-0-|
Gb|---|   Gb|-2-|
Db|-2-|   Db|-2-|
Ab|-2-|   Ab|-0-|
Eb|-0-|   Eb|---|


Verse:
(0:28)
eb|------------------|-----0-0-0-0-0-0-0-0-|
Bb|------------------|-0---0-0-0-0-0-0-0-0-|
Gb|------------------|-2---2-2-2-2-2-2-2-2-|
Db|-2----------------|-2---2-2-2-2-2-2-2-2-|
Ab|-2----------------|-0---0-0-0-0-0-0-0-0-|
Eb|-0----------------|---------------------|

(0:42)
eb|------------------|-----0-0-0-0-0-0-0-0-|
Bb|------------------|-0---0-0-0-0-0-0-0-0-|
Gb|------------------|-2---2-2-2-2-2-2-2-2-|
Db|-2----------------|-2---2-2-2-2-2-2-2-2-|
Ab|-2----------------|-0---0-0-0-0-0-0-0-0-|
Eb|-0----------------|---------------------|

(0:56)
eb|------------------|-----0-0-0-0-0-0-0-0-|
Bb|------------------|-0---0-0-0-0-0-0-0-0-|
Gb|------------------|-2---2-2-2-2-2-2-2-2-|
Db|-2----------------|-2---2-2-2-2-2-2-2-2-|
Ab|-2----------------|-0---0-0-0-0-0-0-0-0-|
Eb|-0----------------|---------------------|

(1:10)
eb|------------------|-----0-0-0-0-0-0-0-0-|
Bb|------------------|-0---0-0-0-0-0-0-0-0-|
Gb|------------------|-2---2-2-2-2-2-2-2-2-|
Db|-2----------------|-2---2-2-2-2-2-2-2-2-|
Ab|-2----------------|-0---0-0-0-0-0-0-0-0-|
Eb|-0----------------|---------------------|

(1:24)
eb|-----------------|
Bb|-------0---------|
Gb|-4-----2---------|
Db|-4-----2-----2---|
Ab|-2-----0-----2---|
Eb|-------------0---|

(1:33)
eb|-------------0---|
Bb|---------0---0---|
Gb|-6---4---2---0---|
Db|-6---4---2---2---|
Ab|-4---2---0---2---|
Eb|-------------0---|

(1:47)
eb|-------------0---|
Bb|-----0---0---0---|
Gb|-6---4---2---2---|
Db|-6---4---2---2---|
Ab|-4---2---0---0---|
Eb|-----------------|


Chorus:
(2:00)
eb|-x-x------------------------------|
Bb|-x-x------0~--0~--0-0-0-0-0-0-0-0-|
Gb|-x-x------6~--2~--2-2-2-2-2-2-2-2-|
Db|-x-x--2~--6~--2~--2-2-2-2-2-2-2-2-|
Ab|-x-x--2~--4~--0~--0-0-0-0-0-0-0-0-|
Eb|-x-x--0~--------------------------|

eb|----------------------------------|
Bb|----------------------------------|
Gb|-----6---2------------------------|
Db|-2---6---2------------------------|
Ab|-2---4---0-------7h9-11p9-7h9-----|
Eb|-0-----------7h9------------------|

eb|----------------------------------|
Bb|------0~---0~---0-0-0-0-0-0-0-0---|
Gb|------6~---2~---2-2-2-2-2-2-2-2---|
Db|-2~---6~---2~---2-2-2-2-2-2-2-2---|
Ab|-2~---4~---0~---0-0-0-0-0-0-0-0---|
Eb|-0~-------------------------------|

eb|----------------------------------|
Bb|----------------------------------|
Gb|-----6---2------------------------|
Db|-2---6---2------------------------|
Ab|-2---4---0-------7h9-11p9-7h9-----|
Eb|-0-----------7h9------------------|


Verse 2:
(2:30)
eb|------------------|-------------------------------|
Bb|------------------|-0----0--0--0--0---0--0--0--0--|
Gb|------------------|-2---/13-13-13-13--11-11-11-11-|
Db|-2----------------|-2---/11-11-11-11--9--9--9--9--|
Ab|-2----------------|-0----0--0--0--0---0--0--0--0--|
Eb|-0----------------|-------------------------------|

(2:43)
eb|------------------|-------------------------------|
Bb|------------------|-0----0--0--0--0---0--0--0--0--|
Gb|------------------|-2---/13-13-13-13--11-11-11-11-|
Db|-2----------------|-2---/11-11-11-11--9--9--9--9--|
Ab|-2----------------|-0----0--0--0--0---0--0--0--0--|
Eb|-0----------------|-------------------------------|

(2:57)
eb|-----------------|
Bb|-0-----0---------|
Gb|-4-----2---------|
Db|-4-----2-----2---|
Ab|-2-----0-----2---|
Eb|-------------0---|
[ Tab from: http://www.guitartabs.cc/tabs/s/spill_canvas/this_is_for_keeps_tab.html ]
(3:07)
eb|---------0---|
Bb|-----0---0---|
Gb|-6---4---2---|
Db|-6---4---2---|
Ab|-4---2---0---|
Eb|-------------|


Chorus:
(3:17)
eb|-x-x------------------------------|
Bb|-x-x------0~--0~--0-0-0-0-0-0-0-0-|
Gb|-x-x------6~--2~--2-2-2-2-2-2-2-2-|
Db|-x-x--2~--6~--2~--2-2-2-2-2-2-2-2-|
Ab|-x-x--2~--4~--0~--0-0-0-0-0-0-0-0-|
Eb|-x-x--0~--------------------------|

eb|----------------------------------|
Bb|----------------------------------|
Gb|-----6---2------------------------|
Db|-2---6---2------------------------|
Ab|-2---4---0-------7h9-11p9-7h9-----|
Eb|-0-----------7h9------------------|

eb|----------------------------------|
Bb|------0~---0~---0-0-0-0-0-0-0-0---|
Gb|------6~---2~---2-2-2-2-2-2-2-2---|
Db|-2~---6~---2~---2-2-2-2-2-2-2-2---|
Ab|-2~---4~---0~---0-0-0-0-0-0-0-0---|
Eb|-0~-------------------------------|

eb|----------------------------------|
Bb|----------------------------------|
Gb|-----6---2------------------------|
Db|-2---6---2------------------------|
Ab|-2---4---0-------7h9-11p9-7h9-----|
Eb|-0-----------7h9------------------|


Bridge:
(3:46)
eb|---------------------------------|
Bb|---------------------------------|
Gb|---------------------------------|
Db|---------------------------------|
Ab|-----------------4~---2~---------|
Eb|-7h9~~-0~---5~-------------4~----|

(3:52)
eb|---------------------------------|
Bb|---------------------------------|
Gb|---------------------------------|
Db|---------------------------------|
Ab|-----------------4~---2~---------|
Eb|-7h9~~-0~---5~-------------4~----|

(4:00)
eb|---------------------------------|
Bb|---------------------------------|
Gb|---------------------------------|
Db|---------------------------------|
Ab|-----------------4~---2~---------|
Eb|-7h9~~-0~---5~-------------4~----|

(4:08)
eb|---------------------------------|
Bb|---------------------------------|
Gb|---------------------------------|
Db|---------------------------------|
Ab|-----------------4~---2~---------|
Eb|-7h9~~-0~---5~-------------4~----|


Chorus:
(4:20)
eb|----------------------------------|
Bb|-------0~--0~--0-0-0-0-0-0-0-0----|
Gb|-------6~--2~--2-2-2-2-2-2-2-2----|
Db|---2~--6~--2~--2-2-2-2-2-2-2-2----|
Ab|---2~--4~--0~--0-0-0-0-0-0-0-0----|
Eb|---0~-----------------------------|

eb|----------------------------------|
Bb|----------------------------------|
Gb|-----6---2------------------------|
Db|-2---6---2------------------------|
Ab|-2---4---0-------7h9-11p9-7h9-----|
Eb|-0-----------7h9------------------|

eb|----------------------------------|
Bb|------0~---0~---0-0-0-0-0-0-0-0---|
Gb|------6~---2~---2-2-2-2-2-2-2-2---|
Db|-2~---6~---2~---2-2-2-2-2-2-2-2---|
Ab|-2~---4~---0~---0-0-0-0-0-0-0-0---|
Eb|-0~-------------------------------|

eb|----------------------------------|
Bb|----------------------------------|
Gb|-----6---2------------------------|
Db|-2---6---2------------------------|
Ab|-2---4---0-------7h9-11p9-7h9-----|
Eb|-0-----------7h9------------------|


Outro:
(4:46)
eb|------------|---------------------------|
Bb|----0--0--0-|---------------------------|
Gb|----6--4--2-|---------------------------|
Db|-2--6--4--2-|-2--4--7-------------------|
Ab|-2--4--2--0-|-2--4--7------7h9-11p9-7h9-|
Eb|-0----------|-0--2--5--7h9--------------|

(4:59)
eb|------------|---------------------------|
Bb|----0--0--0-|---------------------------|
Gb|----6--4--2-|---------------------------|
Db|-2--6--4--2-|-2--4--7-------------------|
Ab|-2--4--2--0-|-2--4--7------7h9-11p9-7h9-|
Eb|-0----------|-0--2--5--7h9--------------|

(5:12)
eb|---|
Bb|---|
Gb|---|
Db|-2-|
Ab|-2-|
Eb|-0-|

Questions? Comments? Requests?: Email