Spill Canvas - Self Conclusion Chords & Tabs

 

Self Conclusion Chords & Tabs

Spill Canvas Chords & Tabs

Version: 1 Type: Tab

Self Conclusion Tab

   
Artist: The Spill Canvas
Song: Self-Conclusion
Album: One Fell Swoop
Tabbed By: Deadlights


 *This song is played in standard tuning with a capo on the third fret.


Intro:
(0:00)
e|-----------------|-----------------|
B|-----------------|-----------------|
G|-----------------|-----------------|
D|-5--2------4--2--|-5--2------4--2--|
A|-7--3--2---5--3--|-7--3--2---5--3--|
E|-------3---------|-------3---------|

(0:11)
e|------------------------------|
B|-0-*-0------0-0-*-0-0-0---0-0-|
G|-0-*-0-0-0--0-0-*-0-0-0---0-0-|
D|-5-*-2-0-0--4-4-*-2-2-0h2-2-2-|
A|-7-*-3-2-2--5-5-*-3-3-3---3-3-|
E|-------3-3--------------------|

Verse:
(0:24)
e|---------------------------------|
B|-0-0-*-0-0-0-0-*-0-0-*-0-0-0-0-*-|
G|-0-0-*-0-0-0-0-*-0-0-*-0-0-0-0-*-|
D|-5-5-*-5-5-5-5-*-5-5-*-5-5-5-5-*-|
A|-7-7-*-7-7-7-7-*-7-7-*-7-7-7-7-*-|
E|---------------------------------|

e|---------------------------------|
B|---------------------------------|
G|-0-0-*-0-0-0-0-*-0-0-*-0-0-0-0-*-|
D|-0-0-*-0-0-0-0-*-0-0-*-0-0-0-0-*-|
A|-2-2-*-2-2-2-2-*-2-2-*-2-2-2-2-*-|
E|-3-3-*-3-3-3-3-*-3-3-*-3-3-3-3-*-|

e|---------------------------------|
B|-0-0-*-0-0-0-0-*-0-0-*-0-0-0-0-*-|
G|-0-0-*-0-0-0-0-*-0-0-*-0-0-0-0-*-|
D|-4-4-*-4-4-4-4-*-4-4-*-4-4-4-4-*-|
A|-5-5-*-5-5-5-5-*-5-5-*-5-5-5-5-*-|
E|---------------------------------|

e|---------------------------------|
B|-0-0-*-0-0-0-0-*-0-0-*-0-0-0-0-*-|
G|-0-0-*-0-0-0-0-*-0-0-*-0-0-0-0-*-|
D|-2-2-*-0h2-2-2-*-2-2-*-0h2-2-2-*-|
A|-3-3-*-3-3-3-3-*-3-3-*-3-3-3-3-*-|
E|---------------------------------|


Pre-Chorus:
(1:14)
e|---------------------------------|
B|-------*-0-*-0-*-0-0-0-0-0-0-0-0-|
G|-------*-0-*-0-*-0-0-0-0-0-0-0-0-|
D|-0-0-0-*-2-*-0-*-4-4-4-4-4-4-4-4-|
A|-2-2-0-*-3-*-2-*-5-5-5-5-5-5-5-5-|
E|-0-3-2---------------------------|

Play twice, then:

(1:26)
e|-----------------|
B|-0-0-0-0-0-0-0-0-|
G|-0-0-0-0-0-0-0-0-|
D|-2-2-2-2-2-2-2-2-|
A|-3-3-3-3-3-3-3-3-|
E|-----------------|


Chorus:
(1:30)
e|------------------------------|
B|-0-*-0----------*-0-0-0---0-0-|
G|-0-*-0-0-0--2-2-*-0-0-0---0-0-|
D|-5-*-2-0-0--2-2-*-2-2-0h2-2-2-|
A|-7-*-3-2-2--0-0-*-3-3-3---3-3-|
E|-------3-3--------------------|


Post-Chorus:
Guitar 1:
(1:53)
e|------------------------------|
B|-0-*-0----------*-0-0-0---0-0-|
G|-0-*-0-0-0--2-2-*-0-0-0---0-0-|
D|-5-*-2-0-0--2-2-*-2-2-0h2-2-2-|
A|-7-*-3-2-2--0-0-*-3-3-3---3-3-|
E|-------3-3--------------------|

Guitar 2:
(1:56)
e|-----------------0--------0---|
B|---------------3--------3-----|
G|-------------2--------2-------|
D|-----------0--------0---------|
A|------------------------------|
E|------------------------------|


Verse 2:
(2:06)
e|---------------------------------|
B|-0-0-*-0-0-0-0-*-0-0-*-0-0-0-0-*-|
G|-0-0-*-0-0-0-0-*-0-0-*-0-0-0-0-*-|
D|-5-5-*-5-5-5-5-*-5-5-*-5-5-5-5-*-|
A|-7-7-*-7-7-7-7-*-7-7-*-7-7-7-7-*-|
E|---------------------------------|
[ Tab from: http://www.guitartabs.cc/tabs/s/spill_canvas/self_conclusion_tab.html ]
e|---------------------------------|
B|---------------------------------|
G|-0-0-*-0-0-0-0-*-0-0-*-0-0-0-0-*-|
D|-0-0-*-0-0-0-0-*-0-0-*-0-0-0-0-*-|
A|-2-2-*-2-2-2-2-*-2-2-*-2-2-2-2-*-|
E|-3-3-*-3-3-3-3-*-3-3-*-3-3-3-3-*-|

e|---------------------------------|
B|-0-0-*-0-0-0-0-*-0-0-*-0-0-0-0-*-|
G|-0-0-*-0-0-0-0-*-0-0-*-0-0-0-0-*-|
D|-4-4-*-4-4-4-4-*-4-4-*-4-4-4-4-*-|
A|-5-5-*-5-5-5-5-*-5-5-*-5-5-5-5-*-|
E|---------------------------------|

e|---------------------------------|
B|-0-0-*-0-0-0-0-*-0-0-*-0-0-0-0-*-|
G|-0-0-*-0-0-0-0-*-0-0-*-0-0-0-0-*-|
D|-2-2-*-0h2-2-2-*-2-2-*-0h2-2-2-*-|
A|-3-3-*-3-3-3-3-*-3-3-*-3-3-3-3-*-|
E|---------------------------------|


Pre-Chorus:
(2:54)
e|---------------------------------|
B|-------*-0-*-0-*-0-0-0-0-0-0-0-0-|
G|-------*-0-*-0-*-0-0-0-0-0-0-0-0-|
D|-0-0-0-*-2-*-0-*-4-4-4-4-4-4-4-4-|
A|-2-2-0-*-3-*-2-*-5-5-5-5-5-5-5-5-|
E|-0-3-2---------------------------|

Play twice, then:

(3:08)
e|-----------------|
B|-0-0-0-0-0-0-0-0-|
G|-0-0-0-0-0-0-0-0-|
D|-2-2-2-2-2-2-2-2-|
A|-3-3-3-3-3-3-3-3-|
E|-----------------|


Chorus:
(3:10)
e|------------------------------|
B|-0-*-0----------*-0-0-0---0-0-|
G|-0-*-0-0-0--2-2-*-0-0-0---0-0-|
D|-5-*-2-0-0--2-2-*-2-2-0h2-2-2-|
A|-7-*-3-2-2--0-0-*-3-3-3---3-3-|
E|-------3-3--------------------|


Bridge:
(3:34)
e|---------------------------------|
B|-------------------0-0-0-0---0-0-|
G|-0-0-0-0-----0-0---0-0-0-0---0-0-|
D|-2-2-2-2-*-*-2-2-*-5-5-5-5-*-5-5-|
A|-2-2-2-2-*-*-2-2-*-7-7-7-7-*-7-7-|
E|-0-0-0-0-*-*-0-0-*---------*-----|

e|---------------------------------|
B|---------------------------*-0-0-|
G|-0-0-0-0-*-*-0-0-*-2-2-2-2-*-0-0-|
D|-0-0-0-0-*-*-0-0-*-2-2-2-2-*-2-2-|
A|-2-2-2-2-*-*-2-2-*-0-0-0-0-*-3-3-|
E|-3-3-3-3-*-*-3-3-*---------------|

e|---------------------------------|
B|-------------------0-0-0-0---0-0-|
G|-0-0-0-0-----0-0---0-0-0-0---0-0-|
D|-2-2-2-2-*-*-2-2-*-5-5-5-5-*-5-5-|
A|-2-2-2-2-*-*-2-2-*-7-7-7-7-*-7-7-|
E|-0-0-0-0-*-*-0-0-*---------*-----|

e|----------------------------------------|
B|---------------------------*-0--0--0--0-|
G|-0-0-0-0-*-*-0-0-*-2-2-2-2-*-0--0--0--0-|
D|-0-0-0-0-*-*-0-0-*-2-2-2-2-*-2--2--2--2-|
A|-2-2-2-2-*-*-2-2-*-0-0-0-0-*-3--3--3--3-|
E|-3-3-3-3-*-*-3-3-*----------------------|

Bridge Part 2:
(4:01)
Guitar 1:
e|---------------------|---------------------|
B|---------------------|---------------------|
G|---------0-0-2-2-2-2-|---------0-0-2-2-2-2-|
D|-0-0-0-*-2-0-2-2-2-2-|-0-0-0-*-2-0-2-2-2-2-|
A|-2-2-0-*-3-2-0-0-0-0-|-2-2-0-*-3-2-0-0-0-0-|
E|-0-3-2-*-------------|-0-3-2-*-------------|

Guitar 2:
(4:04) & (4:10).. etc.
e|-----------------------------|
B|-----------------------------|
G|-------------------0---------|
D|---------------4-----4---4---|
A|-------------5---5-----5-----|
E|-----------------------------|

(4:50)
e|-----------------|
B|-0-0-0-0-0-0-0-0-|
G|-0-0-0-0-0-0-0-0-|
D|-2-2-2-2-2-2-2-2-|
A|-3-3-3-3-3-3-3-3-|
E|-----------------|


Chorus (repeat until fade):
(4:54)
e|------------------------------|
B|-0-*-0----------*-0-0-0---0-0-|
G|-0-*-0-0-0--2-2-*-0-0-0---0-0-|
D|-5-*-2-0-0--2-2-*-2-2-0h2-2-2-|
A|-7-*-3-2-2--0-0-*-3-3-3---3-3-|
E|-------3-3--------------------|


Questions? Comments? Requests? E-mail