Spill Canvas - Polygraph Right Now Chords & Tabs

 

Polygraph Right Now Chords & Tabs

Spill Canvas Chords & Tabs

Version: 1 Type: Tab

Polygraph Right Now Tab

h - hammer
po - pull off
~ - let ring
s - Slide

INTRO

E -----------------------------------------------------------------|
B -----------------------------------------------------------------|
G -----6-----------------------------------------------------------|
D -3---6--6--1-----333-3-3-----------------------------------------|
A -3---4--6--1-----333-3-3-----------------------------------------|
D -3------6--1-----333-3-3-----------------------------------------|
                   PM PM PM

VERSE

E -----------------------------------------------------------------|
B -----------------------------------------------------------------|
G --------6~-------------------------------------------------------|
D --3-3---6~---3-3---6--8------------------------------------------|
A --3-3---4~---3-3---6--8------------------------------------------|
D --3-3--------3-3---6--8------------------------------------------|

CHORUS

E -----------------------------------------------------------------|
B -----------------------------------------------------------------|
G ------6----------------------------------------------------------|
D --3---6---6---1--------------------------------------------------|
A --3---4---6---1--------------------------------------------------|
D --3-------6---1--------------------------------------------------|

BRIDGE
[ Tab from: http://www.guitartabs.cc/tabs/s/spill_canvas/polygraph_right_now_tab.html ]
E -----------------------------------------------------------------|
B -----------------------------------------------------------------|
G ------6---5------------------------------------------------------|
D --3---6---5---1--------------------------------------------------|
A --3---4---3---1--------------------------------------------------|
D --3-----------1--------------------------------------------------|

THEN THE VERSE AGAIN

THEN THE CHORUS AGAIN

SOLO

E -------------------------------------------------------------------|
B -------------------------------------------------------------------|
G -------------------------------------------------------------------|
D -----6--8--10--8--6--5--5h6po5-------------------------------------|
A --8-----------------------------6--3~------------------------------|
D -------------------------------------------------------------------|


E -------------------------------------------------------------------|
B -------------------------------------------------------------------|
G -------------------------------------------------------------------|
D ----6--8--10--8--6--5--5h6po5----------8s--10--8--6--6h8po6--5h6po-|
A --8-----------------------------6--3~------------------------------|
D -------------------------------------------------------------------|


then the chorus again and your done :-)