Spill Canvas - Night Will Go As Follows Chords & Tabs

 

Night Will Go As Follows Chords & Tabs

Spill Canvas Chords & Tabs

Version: 2 Type: Tab 0 ratings
1 star 2 stars 3 stars 4 stars 5 stars
comments

Night Will Go As Follows Tab

   
-----------------------------------------------------------------------------
	      The Night Will Go As Follows - The Spill Canvas
-----------------------------------------------------------------------------
Tabbed by: Elad Mallel
Email: eladmallal@hotmail.com

Tuning: Standard

Intro Chords: (Not accurate, but sound good!)
Note: You figure out the strumming...
      F             A5  Bb5(or A#5)  C5    Bb5(or A#5)
e|--xx1-------------x-------x--------x---------x---------|
B|--xx1-------------x-------x--------x---------x---------| repeat as many
G|--xx2--(X2.5)-----2-------3--------5---------3---------| times as you
D|--xx3-------------2-------3--------5---------3---------| feel is right...
A|--xx3-------------0-------1--------3---------1---------|
E|--xx1-------------x-------x--------x---------x---------|

Verse Chords: (In a romantic fashion...)
      F    Bbsus2
e|----1------1------| Now, there is a second guitar, but since I play this
B|----1------1------| alone, I haven't figured it out yet. I will submit my
G|----2------3------| findings once I have them. For now, just sing with what
D|----3------3------| I have to offer. Promise it sounds good.
A|----3------1------|
E|----1------x------|
[ Tab from: http://www.guitartabs.cc/tabs/s/spill_canvas/night_will_go_as_follows_tab_ver_2.html ]
Bridge: (And then I'll say...)
       D5   C5   Bb5 (Bb5 twice as long as the others)
e|-----x-----x----x----------|
B|-----x-----x----x----------|
G|-----7-----5----3----------|
D|-----7-----5----3----------|
A|-----5-----3----1----------|
E|-----x-----x----x----------|
(still bridge)
       D5   C5  Bb5  C5
e|-----x----x----x----x-----------------------------------------------------|
B|-----x----x----x----x-----------------------------------------------------|
G|-----7----5----3----5-----------------------------------------------------|
D|-----7----5----3----5-----------------------------------------------------|
A|-----5----3----1----3-----------------------------------------------------|
E|-----x----x----x----x-----------------------------------------------------|

Chorus:
      F    Bbsus2  C5   Bbsus2
e|----1-----1-------x-----1-----| in the last chorus set of chords, strech
B|----1-----1-------x-----1-----| the last one a little bit more. Listen to
G|----2-----3-------5-----3-----| the song to know when to stop.
D|----3-----3-------5-----3-----|
A|----3-----1-------3-----1-----|
E|----1-----x-------x-----x-----|

I Know this isn't the most accurate tab out there, but to me it sounds great!
Hope you enjoy it. The Spill Canvas are brilliant.
=============================================================================
Comments