Spill Canvas - Lust A Prima Vista Chords & Tabs

 

Lust A Prima Vista Chords & Tabs

Spill Canvas Chords & Tabs

Version: 3 Type: Tab

Lust A Prima Vista Tab

Lusta Prima Vista
The Spill Canvas

I tabbed this from a few videos and by just listening to the song. I'm pretty sure that 
like 95% correct. Any questions e-mail me at srv_89@hotmail.com

capo 1

intro/verse
E------------------------------------|
B-----------------------------3------|
G---9-x---x--------------x-x--0------|
D---9-x---x-9--9---7-----x-x--2------|
A---7-x---x-10-10--9-----x-x--3------|
E---0-x---x--------------x-x---------|

E-----------------------------------------|
B-----------------------------------------|
G---9-x---x--------------x-x--5-5-5-5--7--|
D---9-x---x-9--9---7-----x-x--5-5-5-5--7--|
A---7-x---x-10-10--9-----x-x--3-3-3-3--5--|
E---0-x---x--------------x-x--------------|

chorus
E---------------------------------------|
B----------------------------3--3-------|
G----------------------------2--0-------|
D-------------------------2--0--2-------|
A-------------------------2--0--3-------|
E---0-0/3--3/5--5/7--5----0-------------|

verse
E------------------------------------|
B-----------------------------3------|
G---9-x---x--------------x-x--0------|
D---9-x---x-9--9---7-----x-x--2------|
A---7-x---x-10-10--9-----x-x--3------|
E---0-x---x--------------x-x---------|

E-----------------------------------------|
B-----------------------------------------|
G---9-x---x--------------x-x--5-5-5-5--7--|
D---9-x---x-9--9---7-----x-x--5-5-5-5--7--|
A---7-x---x-10-10--9-----x-x--3-3-3-3--5--|
E---0-x---x--------------x-x--------------|

[ Tab from: http://www.guitartabs.cc/tabs/s/spill_canvas/lust_a_prima_vista_tab_ver_3.html ]
bridge
"im on my knees..."
E---------------------------|
B---------------------------|
G---------------5-----7-----|
D---9~----7~----5-----7-----|
A---10~---9~----3-----5-----|
E---------------------------|


E------------------------------|
B------------------------------|
G------------------------------|
D---2~-------------------------|
A---2~-------------------------|
E---0~--0--3--3/5--5/7--5--3---|

E-------------------------------------|
B-------------------------------------|
G-----------9-9-9--11-11-11--12--14---|
D---2~------x-x-x--x--x--x---x---x----|
A---2~------7-7-7--9--9--9---10--12---|
E---0~--0-----------------------------|

E------------------------------|
B------------------------------|
G------------------------------|
D---2~-------------------------|
A---2~-------------------------|
E---0~--0--3--3/5--5/7--5--3---|

E-------------------------------------|
B-------------------------------------|
G------------12-12-12--11-11-11--9----|
D---2~-------x--x--x---x--x--x---x----|
A---2~-------10-10-10--9--9--9---7-0--|
E---0~--0-----------------------------|

clap part
E--------------|
B--3--3--3--3--|
G--0--0--0--0--|
D--2--2--2--2--|
A--3--3--3--3--|
E--------------|

chorus
E-------------------|
B--------3--3-------|
G--------2--0-------|
D-----2--0--2-------|
A-----2--0--3-------|
E-----0-------------|

outro
E------------------------------------|
B-----------------------------3------|
G---9-x---x--------------x-x--0------|
D---9-x---x-9--9---7-----x-x--2------|
A---7-x---x-10-10--9-----x-x--3------|
E---0-x---x--------------x-x---------|

E-----------------------------------------|
B-----------------------------------------|
G---9-x---x--------------x-x--5-5-5-5--7--|
D---9-x---x-9--9---7-----x-x--5-5-5-5--7--|
A---7-x---x-10-10--9-----x-x--3-3-3-3--5--|
E---0-x---x--------------x-x--------------|