Spill Canvas - Caterpillars Chords & Tabs

 

Caterpillars Chords & Tabs

Spill Canvas Chords & Tabs

Version: 2 Type: Tab 0 ratings
1 star 2 stars 3 stars 4 stars 5 stars
comments

Caterpillars Tab

The Spill Canvas
Caterpillars
Standard Tuning

Tabbed by Brandon Belisle (blyle227@yahoo.com)
Trenton, MI

Fairly simple song to play. 
Rhythm is inconsistant so you will have to figure much of it out.
Enjoy!


Intro
---0-0---7----4---2--2h4-2----------4--0--2h4p2--------|
---4/5--------5---4---------4---1/2----2---------4--0--|x4
---5/6--------6---4--------------------2---------------|
-------------------------------------------------------|
-------------------------------------------------------|
-------------------------------------------------------|

---0--0~-----2h4p2-------0~-----2h4p2---|
---0--0~-----------4--0--0~-----------4-|1x
---2--2~-----------------2~-------------|
---2--2~-----------------2~-------------|
---0--0~-----------------0~-------------|
---x--x------------------x--------------|

Chorus

        Your picture in my hand and I am at the mercy of your photograph 
       The halo above your head     celebrates the heavens my angel.
---0--0x-------------------0>-------0-0x----------------------0>-----------------|
---0--0x-------------------0>-------0-0x----------------------0>-----------------|2x
---6--6x-------------------4>-------2-2x----------------------4>-----------------|
---6--6x-------------------4>-------2-2x----------------------4>-----------------|
---4--4x-------------------2>-------0-0x----------------------2>----------2-0-2-4|
---x--xx-------------------x--------x-xx----------------------x------------------|


     Its 6 a.m. and I am       sneaking out your back door 
     A goodnight kiss and I am stumbling        to my car                 
---0>--------------------------0>---------------------0>------0>---------|
---0>--------------------------0>---------------------0>------0>---------|2x
---6>--------------------------4>---------------------2>------4>---------|
---6>--------------------------4>---------------------2>------4>---------|
---4>--------------------------2>---------------------0>------2>---------|
---x---------------------------x----------------------x>------x----------|


[ Tab from: http://www.guitartabs.cc/tabs/s/spill_canvas/caterpillars_tab_ver_2.html ]
Pre-chorus
                                        
--0-0-0-0x-|
--0-0-0-0x-|1x
--6-6-6-6x-|
--6-6-6-6x-|
--4-4-4-4x-|
--x-x-x-xx-|

                             1st ending 2nd ending
---0>------0>------0>-------|----0>----|----0>----|
---0>------0>------0>-------|----0>----|----0>----|2x
---9>------8>------9>-------|---11>----|----2>----|
---9>------9>------7>-------|----9>----|----2>----|
---7>------6>------9>-------|---11>----|----0>----|
---0>------0>------0>-------|----0>----|----x>----|


Chorus

     And with you I am truly in my element, my element with you
     And with you I am truly in my element, my element with you
---0>------------------0>------------0>----------0>----|
---0>------------------0>------------0>----------0>----|2x
---9>------------------8>------------9>----------2>----|
---9>------------------9>------------7>----------2>----|
---7>------------------6>------------9>----------0>----|
---0>------------------0>------------0>----------x>----|


Post-Chorus
					       And I'm...
---0-0-0-0x-x-x-x-x----0>----0>----0>---0--|
---2-2-2-2x-x-x-x-x----0>----0>----0>---0--|1x
---4-4-4-4x-x-x-x-x----2>----4>----2>---4--|
---2-2-2-2x-x-x-x-x----2>----4>----2>---4--|
---0-0-0-0x-x-x-x-x--0-0>--2-2>--0-0>---2--|
---x-x-x-x--x-x-x-x----x-----x-----x----x--|


   tossing and turning the candlelights burning and this is all we need, and this is all we need. And I'm
   tossing and turning the candlelights burning and this is all we need, and this is all we need,
 Tonight... (Tempo change)
---0>----------------------0>-----------------------0>-------------------0>---------|
---0>----------------------0>-----------------------0>-------------------0>---------|7x
---6>----------------------4>-----------------------2>-------------------4>---------|
---6>----------------------4>-----------------------2>-------------------4>---------|
---4>----------------------2>-----------------------0>-------------------2>---------|
---x-----------------------x------------------------x>-------------------x----------|

End on

---0~--|
---0~--|
---6~--|
---6~--|
---4~--|
---x---|
Comments