Spill Canvas - Caterpillars Chords & Tabs

 

Caterpillars Chords & Tabs

Spill Canvas Chords & Tabs

Version: 1 Type: Tab 0 ratings
1 star 2 stars 3 stars 4 stars 5 stars
comments

Caterpillars Tab

   
Tabbed by: Elad Mallel
Email: eladmallal@hotmail.com

Tuning:Standard

Note: To help you with the intro, use a chord. it's structure is:

e|----7------------------------| use you little finger to move around.
B|----7------------------------|
G|----6------------------------|

e|-----7--------------------------------------------------------------------|
B|--------x--9--7--7h9-p7--------9--------7h9p7-----0-----------------------|
G|--6----------------------8--6-----x--9---------8--------------------------|
D|--------------------------------------------------------------------------|
A|--------------------------------------------------------------------------|
E|--------------------------------------------------------------------------|

After this solo, there are two chords for the pre verse part:
     C#m            Asus2
e|----4---------------0-----------------------------------------------------|
B|----5---------------0-----------------------------------------------------|
G|----6---------------2-----------------------------------------------------|
D|----6---------------2-----------------------------------------------------|
A|----4---------------0-----------------------------------------------------|
E|----x---------------0-----------------------------------------------------|
  Now, there are two sets of similar chords for the entire song.
  The first set is:
[ Tab from: http://www.guitartabs.cc/tabs/s/spill_canvas/caterpillars_tab.html ]
     C#m    Asus2     E       B
e|----4-------0-------0-------2---------------------------------------------|
B|----5-------0-------0-------4---------------------------------------------|
G|----6-------2-------1-------4---------------------------------------------|
D|----6-------2-------2-------4---------------------------------------------|
A|----4-------0-------2-------2---------------------------------------------|
E|----x-------0-------0-------x---------------------------------------------|
   The second set:
     C#?    Asus2     E      B?
e|----0-------0-------0-------0---------------------------------------------|
B|----0-------0-------0-------0---------------------------------------------|
G|----6-------2-------1-------4---------------------------------------------|
D|----6-------2-------2-------4--------------------------------------------|
A|----4-------0-------2-------2---------------------------------------------|
E|----0-------0-------0-------0---------------------------------------------|

  The song ends with these chords:
     C#m            Asus2
e|----4---------------0-----------------------------------------------------|
B|----5---------------0-----------------------------------------------------|
G|----6---------------2-----------------------------------------------------|
D|----6---------------2-----------------------------------------------------|
A|----4---------------0-----------------------------------------------------|
E|----x---------------0-----------------------------------------------------|


| /  slide up
| \  slide down
| h  hammer-on
| p  pull-off
| ~  vibrato
| +  harmonic
| x  Mute note
============================================================================
Comments