Spill Canvas - Black Dresses Chords & Tabs

 

Black Dresses Chords & Tabs

Spill Canvas Chords & Tabs

Version: 1 Type: Tab 0 ratings
1 star 2 stars 3 stars 4 stars 5 stars
comments

Black Dresses Tab

   
-----------------------------------------------------------------------------
			 BLACK DRESSES - Spill Canvas
-----------------------------------------------------------------------------
Tabbed by:Sean
Email:wings217@hotmail.com

Tuning:DADGBe (Dropped D)
[ Tab from: http://www.guitartabs.cc/tabs/s/spill_canvas/black_dresses_tab.html ]
e|-------2-2h3p2p0-----------------------------------------------------------|
B|------------------------3-3h5p3p0------------------------------------------|
G|---------------------------------------2-2h4-----2h4-----2h4p2p0-----------|
D|-0-0-0------------0-0-0------------0-0-------0-0-----0-0-------------------|
A|-0-0-0------------0-0-0------------0-0-------0-0-----0-0-------------------|
D|-0-0-0------------0-0-0------------0-0-------0-0-----0-0-------------------|
   pm...            pm...            pm..      pm..    pm..
e|-------2-2h3p2p0-----------------------------------------------------------|
B|------------------------3-3h5p3p0------------------------------------------|
G|---------------------------------------2-2h4-----2h4-----2h4\1-------------|
D|-0-0-0------------0-0-0------------0-0-------0-0-----0-0-------------------|
A|-0-0-0------------0-0-0------------0-0-------0-0-----0-0-------------------|
D|-0-0-0------------0-0-0------------0-0-------0-0-----0-0-------------------|
   pm...            pm...            pm..      pm..    pm..
e|---------------------------------------------------------------------------|
B|---------------------------------------------------------------------------|
G|--2h3p2h3p2h3/5------------------------------------------------------------|
D|---------------------------------------------------------------------------|
A|---------------------------------------------------------------------------|
D|---------------------------------------------------------------------------|

| /  slide up
| \  slide down
| h  hammer-on
| p  pull-off
| ~  vibrato
| +  harmonic
| x  Mute note
=============================================================================
Comments