Spill Canvas - All Hail The Heartbreaker Chords & Tabs

 

All Hail The Heartbreaker Chords & Tabs

Spill Canvas Chords & Tabs

Version: 3 Type: Tab

All Hail The Heartbreaker Tab

All Hail The Heartbreaker - Spill Canvas 

There are two guitars, both in down D tuning. 
The song is 5:08 seconds long so I broke it up into every piece from start to finish.
Tabbed by : Keith Hanley - keith_hanley@hotmail.com for and corrections,comments.

x=palm mute ..=let ring h=hammer on p=pull off



Guitar one (acoustic)- Intro "00:00-00:06" X2 
*note - I believe the Palm mutes/tapping in the intro are just the drums, but added
them in because you can still do it, with it sounding fine. And the slides, single
notes are only played the first time around.*

[-----------------------------------------------------]
[---------------------------------4/6-----------------]
[---------------------------------5/6-------3---------]
[-44-x-x-444-x-442-x--444-x-x-444-----4-0-2-4---------]
[-00-x-x-555-x-550-x--000-x-x-000---------------------]
[-00-x-x-000-x-000-x--000-x-x-000---------------------]



Guitar one (acoustic)- Verse  "00:06-00:34"
[---------------------------]
[---------------------------]
[---------------------------]
[----444--442---444---------]
[----555--550---000---------]
[----000--000---000---------]



Guitar two (electric)- Pre-Chorus "00:34-00:43"
[-------------------------------------------]
[-------------------------------------------]
[----7---6-----------9-9-9---7--------------]
[----7---7---5-5-5---9-9-9---7---5-5-5------]
[----5---5---5-5-5---7-7-7---5---5-5-5------]
[------------5-5-5---------------5-5-5------]
               x       x           x


Guitar one (acoustic)- Chorus "00:45-01:07"
[-------------------------------------------]
[------3---------0--------------------------]
[--------2-----------------2-2--------------]
[4-0-4-----4-0-4---4-4-0-4-4-4-2-2h4-2-2h4--] 
[-------------------------------------------]
[-------------------------------------------]


[ Tab from: http://www.guitartabs.cc/tabs/s/spill_canvas/all_hail_the_heartbreaker_tab_ver_3.html ]
Guitar one (acoustic)- Pre-Verse "01:08-01:17" X2
[-----------------------------------]
[-----------------------------------]
[-----------------------------------] 
[-44---444--442---444---444-4h5-0---]
[-00---555--550---000---000-------0-]
[-00---000--000---000---000---------]
*note - the hammer on and open strings are only played the first time around.*

Guitar two (electric)- Pre-Verse "01:08-01:17" X2
[-------------------------------]
[-------------------------------]
[-------------------------------] 
[-44---444--442---444---444-----]
[-00---555--550---000---000-----]
[-00---000--000---000---000-----]



Guitar one and two (acoustic & electric)- Verse  "01:17-01:35"
[---------------------------] 
[---------------------------]    *note- on the last time around instead of the -444-  play -44..-4..*
[---------------------------]                                                  -000-       -00..-5..
[----444--442---444---------]                                                  -000-       -00..-0..
[----555--550---000---------]
[----000--000---000---------]



Guitar two (electric)- Pre-Chorus "01:41-01:51"
[-------------------------------------------]
[-------------------------------------------]
[----777-6-------777-6----------------------]
[----777-7--555--777-7--555-----------------]
[----555-7--555--555-7--555-----------------]
[-----------555---------555-----------------]
      x      x    x      x           


Guitar one (acoustic)- Chorus "01:53-02:15"
[-------------------------------------------]
[------3---------0--------------------------]
[--------2-----------------2-2--------------]
[4-0-4-----4-0-4---4-4-0-4-4-4-2-2h4-2-2h4--] 
[-------------------------------------------]
[-------------------------------------------]

Guitar one (acoustic)- Bridge "02:15-02:30"x6   then      "02:31-02:35"
[-----------------2--------]                           [------------------------]
[-------------3------------]                           [------------------------]
[--------00-----2----------]                           [------00--00 0----------]
[--------44-4--------------]                           [------44--42-2-4--4-----]
[--------------------------]                           [---------------5--5-----]
[--------------------------]                           [------------------------]
         xx                                                   x   x  x 


Most rest of the song is the same power chords you find in the verses and chorus, enjoy!