Spill Canvas - All Hail The Heartbreaker Chords & Tabs

 

All Hail The Heartbreaker Chords & Tabs

Spill Canvas Chords & Tabs

Version: 1 Type: Tab

All Hail The Heartbreaker Tab

All Hail the Heartbreaker
The Spill Canvas
Sunsets and Car Crashes

Awesome song, this is just the acoustic intro. Im not sure
if this is perfect but it is better than the other tabs I
have seen for this. Don't forget to tune to 'drop D'.
Tabbed by Nathan :D

[ Tab from: http://www.guitartabs.cc/tabs/s/spill_canvas/all_hail_the_heartbreaker_tab.html ]
E---------------------------------------------------------|
B------------------------------------------------5/7\6----|
G------------------------------------------------5/7\6----|
D--44--X--X--444--X--445--X--5-55--X--X--555--X-----------|
A--00--X--X--000--X--000--X--0-55--X--X--555--X--------245|
D--00--X--X--000--X--000--X--0-55--X--X--555--X-----------|

E---------------------------------------------------------|
B---------------------------------------------------------|
G---------------------------------------------------------| X5
D--44--X--X--444--X--445--X--5-55--X--X--555--X--555------|
A--00--X--X--000--X--000--X--0-55--X--X--555--X--555------|
D--00--X--X--000--X--000--X--0-55--X--X--555--X--555------|