Spiderbait - Plastic Chords & Tabs

 

Plastic Chords & Tabs

Spiderbait Chords & Tabs

Version: 1 Type: Tab 0 ratings
1 star 2 stars 3 stars 4 stars 5 stars
comments

Plastic Tab

T1: Dominic Alessio, dimebag@tpgi.com.au, Spiderbait, Plastic, 1999 

  S1: The new single of Spiderbait's fourth album "Grand Slam", "Plastic"
  by Spiderbait 
  Off the album "Grand Slam" 

  Tabbed by Dom Alessio [ Tab from: http://www.guitartabs.cc/tabs/s/spiderbait/plastic_tab.html ]
  D:-------------5-5-5-5-5- 
  A:-0--h1/5--8/-3-3-3-3-3- 
  E:----------------------- 

  Verse: 

  G:-7-7-------5-5------ 
  D:-7-7--7-7--5-5--5-5- 
  A:-5-5--7-7--3-3--5-5- 
  E:------5-5-------3-3- 

  Play three tines then 

  G:-7-7-------5-5-------7-7-7-7-7--- 
  D:-7-7--7-7--5-5--5-5--7-7-7-7-7--- 
  A:-5-5--7-7--3-3--5-5--5-5-5-5-5--- 
  E:------5-5-------3-3-------------- 

  Chorus: 

  G:------------5-5-5/-7-7-- 
  D:-7-7-7-5-5--5-5-5/-7-7-- 
  A:-7-7-7-5-5--3-3-3/-5-5-- 
  E:-5-5-5-3-3-------------- 


  Any questions, comments, suggestions email me at dimebag@tpgi.com.au 
Comments