Spiderbait - Buy Me A Pony Chords & Tabs

 

Buy Me A Pony Chords & Tabs

Spiderbait Chords & Tabs

Version: 1 Type: Tab 0 ratings
1 star 2 stars 3 stars 4 stars 5 stars
comments

Buy Me A Pony Tab

   
#----------------------------------PLEASE NOTE---------------------------------#
#This file is the author's own work and represents their interpretation of the #
#song. You may only use this file for private study, scholarship, or research. #
#------------------------------------------------------------------------------##
#

Date: Sat, 15 Feb 1997 13:49:01 +1100
From: magor 
Subject: TAB: Buy Me A Pony by Spiderbait

Spiderbait - Buy Me A Pony

The strumming for this song is very easy. Work it out for yourself.

Intro
   D5 D5      D  
E|---------------|
B|---------------| 
G|-11-11-----12--|
D|-12-12-----10--|
A|-12-12-----12--|
E|-10-10-----11--|

Just leave your finger barred across the 10th fret when changing to the
second D.
[ Tab from: http://www.guitartabs.cc/tabs/s/spiderbait/buy_me_a_pony_tab.html ]
1st Riff
   D5       F5    C5
E|-------------------|
B|-------------------| 
G|-11-------10----9--|
D|-12-------10----10-|
A|-12--------8----10-|
E|-10-------------8--|

2nd Riff
   G5  D5
E|---------|
B|---------| 
G|-12--11--|
D|-12--12--|
A|-10--12--|
E|-----10--|

3rd Riff
   D5   A#5 C5   G5
E|-----------------|
B|-----------------| 
G|-11---7---9----4-|
D|-12---8---10---5-|
A|-12---8---10---5-|
E|-10---6---8----3-|

4th Riff
   F5  A#5 G5  C5
E|---------------|
B|---------------|
G|-----3-------5-|
D|-3---3---5---5-|
A|-3---1---5---3-|
E|-1-------3-----|

Order
-----
Intro
Riff 1   3 times
Riff 2   4 times
Riff 1   3 times
Riff 2   4 times
Riff 1   3 times
Riff 2   4 times
Riff 3   3 times
Riff 4   1 time
Riff 1   3 times
Riff 2   4 times
Riff 1   3 times
Riff 2   4 times
Riff 3   3 times
Riff 4   1 time



Graham Magor
magor@midcoast.com.au
Comments