Spider - Relaku Pujuk Chords & Tabs

 

Relaku Pujuk Chords & Tabs

Spider Chords & Tabs

Version: 1 Type: Tab 0 ratings
1 star 2 stars 3 stars 4 stars 5 stars
comments

Relaku Pujuk Tab

   
Relaku Pujuk 
Spider 
By Najib Abdullah

This is as accurate as i could get. And i think it's 99.9% correct. 
Coz the rest of the tabs posted for this song duzn't really sound like the song at all.
Anyway.. enjoy!!


Guitar 1 - Plays intro, riffs and plucking
Guitar 2 - Strum chords 


Intro: *Strum only once (tricky)


            *Bm  *G   F#        G     
e---------------------------------------------------------------|
B---------------------------------------------------------------|
G-------------6-------------7-7-7-6-4-4/7-----------------------|
D---------4-7---7---7-------------------------------------------|
A—5-5-5--7----------9---7/9-------------------------------------|
E---------------------------------------------------------------|



   D                            *Bm  *G  *A  *D   *G    N.H. (Natural Harmonics)
e-------------9\5---------------------------------(3)---------|
B-------7-10------7\5------------7---10---5---7----3----12----|
G--7-9---------------------------7----9---6---7----4----12----|
D-------------------------------------------------------12----|
A-------------------------------------------------------------|
E-------------------------------------------------------------|



  Bm        A           D
Dikejar bayang-bayang resah
  Em         F#          Bm
Bila hatimu masih tak berubah
  Em     A     Bm      G
Enggan di punya dan di penjara
   A     A       D    F#(Riff 1)
Belaian cintaku ini


Riff 1:
           
e-----------------2-----------------|
B----------3--5------2---(0)--------|
G—4-4-4--6--------------------------|
D-----------------------------------|
A-----------------------------------|
E-----------------------------------|



(Guitar 1 plucks the barred chords)


  Bm         A          D
Aku bukan lelaki yang tewas
    Em          F#          Bm(riff 2)
Bisa menyembah walau ku di tolak
   Em    A        Bm     G
Biar di uji kanan dan kiri
    A              D (Riff 3)
Kau kan tetap ku miliki


Riff 2:

e-------7--------9------7-----------------|
B-----7---7---7-----7-----7----(7)--------|
G-----------------------------------------|
D---9-------9---------9-----9------(9)----|
A-----------------------------------------|
E-----------------------------------------|



Riff 3:

e------0-----------0-------------0----------(0)---(0)--------------|
B----3--3-3------3--3-3--------3---3-3-------3-----5---------------|
G---2-2--2------2-2--2--------2-2---2--------4-----6---------------|
D--0-----------------------------------------5-----7---------------|
A--------------1------------2----------------5-----7---------------|
E------------------------------------------------------------------|



Chorus:
(Rake strings + sound harmonics)

D           A           Bm
Tiada lafas yang lebih agung
  G (Riff 4)  D      A             Bm(Riff 5)   A (Bb)
Kalimah cintamu yang ku tunggu tunggu
D          A             Bm
Biar jasadku yang menanggung
    G(Riff 4)  D       A    Bm(Riff 6)  Bb
Permainan darimu rela ku pujuk


Riff 4:
[ Tab from: http://www.guitartabs.cc/tabs/s/spider/relaku_pujuk_tab.html ]
e--------------------------------|
B--12--10------------------------|
G----------12--14--11-(11)-------|
D--------------------------------|
A--------------------------------|
E--------------------------------|

Riff 5:

e-------------------------|
B-------------------------|
G--4--4\7--6--4\6\3-------|
D--x--x----x--x-x-x-------|
A--2--2\5--4--2\4\1-------|
E-------------------------|

Riff 6:

e----------------------|
B----------------------|
G--4--4\6\4----3-------|
D--x--x-x-x----x-------|
A--2--2\4\2----1-------|
E----------------------|




  Bm             A        D
Janganlah kau salahkan aku
    Em       F#            Bm(Riff 2)
Terus memburu menawan cintamu
    Em      A       Bm   G
Daku percaya sedikit masa
  A                 Bm
Kau kecundang akhirnya



Solo over:  Bm   Em    Bm A G  (Guitar 2)



Guitar 1:

e---9--10--9--12--10----9-9-9\10-9----7-7-7\9-7----55\3--2--3------|
B---9--------------------------------------------------------------|
G------------------------------------------------------------------|
D------------------------------------------------------------------|
A------------------------------------------------------------------|
E------------------------------------------------------------------|


e----5-3-2-0-3-2-0--2-0----0---------------------------------------|
B-----------------3----3-2---3-2-0-3------5--2---------------------|
G------------------------------------------------------------------|
D------------------------------------------------------------------|
A------------------------------------------------------------------|
E------------------------------------------------------------------|

e------------------------------5-3-2-3-----------------------------|
B-----------------2-3-5-3-2-3--------------------------------------|
G----------0-2-4---------------------------------------------------|
D—0-0-0-2-4--------------------------------------------------------|
A------------------------------------------------------------------|
E------------------------------------------------------------------|

Bridge:
(Guitar 1 bends a few notes.. lazy to type laa)

    Em         A            Bm         G
Usahlah kau bersedih di hadapanmu aku hadir
      Em             A           Bm      (G)
Memadam resah dan curiga dari hatimu oh...
    Em         A          Bm            G
Apakah kali ini bisa kau tolak dan berlari
      Em      Em        F#     A
Setelah aku menanamkan azimatku



**Chorus:
(Rake strings + sound harmonics)

D           A           Bm
Tiada lafas yang lebih agung
  G (Riff 4)  D      A             Bm(Riff 5)   A (Bb)
Kalimah cintamu yang ku tunggu tunggu
D          A             Bm
Biar jasadku yang menanggung
    G (Riff 4) D       A    Bm(Riff 7)  Em  F#
Permainan darimu rela ku pujuk

Riff 7:

e-------------------------|
B-------------------------|
G--4--4\7\6\9\8\11--------|
D--x--x-x-x-x-x-x---------|
A--2--2\5\4\7\6\9---------|
E-------------------------|    

repeat chorus** x1


D (Tacet)                

Biar jasadku yang menanggung   
Permainan darimu rela ku pujuk



Phew...

Tell me what you think of it.
Any e-mails/ suggestions/ corrections send to phtirus@hotmail.com

			

Comments