Spice Girls - Wannabe Chords & Tabs

 

Wannabe Chords & Tabs

Spice Girls Chords & Tabs

Version: 3 Type: Bass Tab 0 ratings
1 star 2 stars 3 stars 4 stars 5 stars
comments

Wannabe Bass Tab

Artist: Spice girls
Song: Wannabe

Ok, here’s the song..it may seem difficult, but you can do it homie!
This should sound pretty good. Just listen carefuly to the song and you hear it!

verse
G-----4------12----------------|
D2h3---4h5-------------------9-|
A----------------5p3-----5-6---|
E----------------------3-4-----|
[ Tab from: http://www.guitartabs.cc/tabs/s/spice_girls/wannabe_btab_ver_3.html ]
Slow part
G----------------0-9--------------|
D--------------------12-----------|
A------------------------1-4-5h6--|
E—13h14p12------------------------|

Ref
G----14-6--------------------20-13------|
D-7--------4h5p4-------------------1-0--|
A-------------------4/13----------------|
E-------------------------13------------|

This shoult be it… if you got any coments or think this song is bad, you can og 
to hell where my mommy beat you up! If you wannabattle…download crime outfit…  
heres my mail asshole! Eivind@grotterod.com  
Comments