Spice Girls - Viva Forever Chords & Tabs

 

Viva Forever Chords & Tabs

Spice Girls Chords & Tabs

Version: 3 Type: Tab 0 ratings
1 star 2 stars 3 stars 4 stars 5 stars
comments

Viva Forever Tab

   
Viva Forever - Spice Girls


Transcribed by dorgin


Tuning:EADGBe

| /  slide up
| \  slide down
| h  hammer-on
| p  pull-off
| ~  vibrato
| +  harmonic
| x  Mute note


Solo(2:32)

   down stroke                       down stroke
e|---------6--6--6-----------------|---------6--6--6------------------|
B|------7-----------9--7--6--7--7--|------7------------9--7--6--6-----|
G|---8-----------------------------|---8---------------------------6--|
D|---------------------------------|----------------------------------|
A|---------------------------------|----------------------------------|
E|---------------------------------|----------------------------------|


e|-----------------6--7--7h9--7--7-|--6--7--7--6-------7---6---6------|
B|--------6--7--9------------------|---------------9------------------|
G|--6--8---------------------------|----------------------------------|
D|---------------------------------|----------------------------------|
A|---------------------------------|----------------------------------|
E|---------------------------------|----------------------------------|
[ Tab from: http://www.guitartabs.cc/tabs/s/spice_girls/viva_forever_tab_ver_3.html ]
   down stroke                       down stroke
e|---------6--6--6-----------------|---------6--6--6------------------|
B|------7-----------9--7--6--9--7--|------7------------9--7--6--7p6---|
G|---8-----------------------------|---8----------------------------6-|
D|---------------------------------|----------------------------------|
A|---------------------------------|----------------------------------|
E|---------------------------------|----------------------------------|


e|---------------6--9--9--7--7-----|---7--7--7p6-----7--6-------------|
B|------6--7--9--------------------|--------------9-------------------|
G|---8-----------------------------|----------------------------------|
D|---------------------------------|-------------------------4/6------|
A|---------------------------------|----------------------------------|
E|---------------------------------|----------------------------------|


e|----------------------6---9/11---|
B|---------------6--7--------------|
G|---------6--8--------------------|
D|---6--8--------------------------|
A|---------------------------------|
E|---------------------------------|


Nice solo.


Rock On!
Comments