Spice Girls - Mama Chords & Tabs

 

Mama Chords & Tabs

Spice Girls Chords & Tabs

Version: 1 Type: Tab 0 ratings
1 star 2 stars 3 stars 4 stars 5 stars
comments

Mama Tab

   
##################################################################################
# This file is the author's own work and represents their interpretation of the  #
# song. You may only use this file for private study, scholarship, or research.  #
##################################################################################

Mama - Spice Girls

Tabbed by Adam Bishop

Capo 1

All tab is relative to capo....so a "9" is actually played at fret 10.

C/G  - 332010
D/F# - 200232
Em7  - 022033
G    - 320033

You don't really need to play the G or F# bass notes but I think it sounds 
better that way.

Intro (violin or cello, somemthing like that):
   C/G              D/F#       Em7  D/F#       G        C/G
E|----------------------------------------------------------
B|----------------------------------------------------------
G|-------------9----11--9-----------11--9-------------------
D|-10----12----------------12--9-----------12--9----12------
A|------------------------------------------------------10--
E|----------------------------------------------------------
[ Tab from: http://www.guitartabs.cc/tabs/s/spice_girls/mama_tab.html ]
   C/G              D/F#       Em7  D/F#       G       C/G
E|----------------------------------------------------------
B|----------------------------------------------------------
G|-------------9----11--9-----------11--9-------------------
D|-10----12----------------12--9-----------12--9----12/14---
A|----------------------------------------------------------
E|----------------------------------------------------------

(Riff)

Riff (this is a flute or something, and it's probably not right):
   C/G                   D/F#              Em7   D/F#  G
E|-------------------------------------------------------------------
B|-------------------------------------------------------------------
G|-12-12-12--12p10h12p10-12/1312p10h12------------------------------
D|--------------------------------------11-10----10-10-10--10p8h10p8-
A|-------------------------------------------------------------------
E|-------------------------------------------------------------------
              C/G
E|-------------------
B|-------------------
G|-------------------
D|-10/1110p8h10-----
A|---------------8-8-
E|-------------------


(With Riff)
Mama I love you, mama I care
Mama I love you, mama I care

Repeat, with different words sometimes, for a few minutes until fadeout
Comments