Spencer Davis Group - Keep On Running Chords & Tabs

 

Keep On Running Chords & Tabs

Spencer Davis Group Chords & Tabs

Version: 1 Type: Tab 0 ratings
1 star 2 stars 3 stars 4 stars 5 stars
comments

Keep On Running Tab

   
#----------------------------------PLEASE NOTE---------------------------------#
#This file is the author's own work and represents their interpretation of the #
#song. You may only use this file for private study, scholarship, or research. #
#------------------------------------------------------------------------------#

ARTIST: Spencer Davis Group
SONG: Keep On Running
ALBUM: 
FROM: Lukas Lechner, Woergl, Austria
E-MAIL: luggi69@web.de
DATE: Sep 30 2001




KEEP ON RUNNING
(Edwards)

Intro (bass riff):

G---------------------------------------------------------------------
D---------------------------------------------------------------------
A----------------------5--5-3-3-5-3-0----------------5--5-3-3-5-3-0---
E---5-3--5-3--5-3--5-3----------------5--5-3-3-5-3-0------------------

      |---------------------------------------------|
|
 |---- play this part throughout

guitar plays:  A-D   A-D  

E  E  E


Fade out



one of the most driving rocks of the 60's!
[ Tab from: http://www.guitartabs.cc/tabs/s/spencer_davis_group/keep_on_running_tab.html ]
_________________________________________________________
Corrections, questions, comments and suggestions are    |
always welcome, just mail me!        |
________________________________________________________|
"Won't you tell me, where have all the good times gone?"| 
-Ray Davies, 1965|          
________________________________________________________|
"...enjoy a time when rock was still about making music |
for fun, not money for corporations."|
________________________________________________________|


**************************************************************************************************************

**************************************************************************************************************

HIGH TIME BABY by THE SPENCER DAVIS GROUP

The B-side of 'Keep On Running' (Fontana, 1965)

The riff that's played through the
 verses goes like this:

  G
-----------------------
-----------------------
-----------------------
-----------------------
--------1--3--3--1-----
--3--3--------------3--

  C
-----------------------
-----------------------
-----------------------
--------1--3--3--1-----
--3--3--------------3--
-----------------------

  D
-----------------------
-----------------------
-----------------------
--------3--5--5--3-----
--5--5--------------3--
-----------------------
Comments