Speedway - Save Yourself Chords & Tabs

 

Save Yourself Chords & Tabs

Speedway Chords & Tabs

Version: 1 Type: Tab 0 ratings
1 star 2 stars 3 stars 4 stars 5 stars
comments

Save Yourself Tab

   
speedway - save yourself. guitar tab and chords
from speedway album save yourself
an amazing scottish band

Quite easy if you know what your doing!!

Verse
E C#m B A C#m A F#m E

Chorus

A E A F#m A B

Lead 2nd Verse

-------------------------------------------------------------|
-9---------9------------9-------10-------10------10----------|
----9---------9-----------9---------9--------9--------9------| x2
-------9---------9---------------------9--------9------------|
-------------------------------------------------------------|
-------------------------------------------------------------|

------------------------------------------------------------------|
---9----------9---------9------10-----------10----------10--------|
------9----------9---------9--------9------------9------------9---|
----------11-------11------------------11-----------11------------|
------------------------------------------------------------------|
------------------------------------------------------------------|

------------------------------------------------------|
---7-------7-------7-------7-------7-------7----------|
------8-------8-------8-------8-------8-------8-------|
---------9-------9---------------9-------9------------|
------------------------------------------------------|
------------------------------------------------------|
[ Tab from: http://www.guitartabs.cc/tabs/s/speedway/save_yourself_tab.html ]
----------------------------------------------------|
--5--------5-------5-----5-------5-------5----------|
-----6--------6-------6-----6-------6-------6-------|
--------7--------7-------------7-------7------------|
----------------------------------------------------|
----------------------------------------------------|

-------------------------------5-------5-------5-----------------|
--9---------9--------9----------5-------5-------5----------------|
-----9---------9--------9----------6-------6---------------------|
--------11-------11----------------------------------------------|
-----------------------------------------------------------------|
-----------------------------------------------------------------|

--2-------2-------2-------2--------2-------2---------------------|
-----2-------2-------2-------4--------4-------4------------------|
--------2-------2---------------4--------4-----------------------|
-----------------------------------------------------------------|
-----------------------------------------------------------------|
-----------------------------------------------------------------|

-----------------------------------------------------------------|
--9--------9-------9-----10------10------10----------------------|
-----9--------9-------9------9-------9--------9------------------|
--------9--------9--------------9-------9------------------------|
-----------------------------------------------------------------|
-----------------------------------------------------------------|


And thats It!!!!!
Hope it's Right
Any Corrections welcome but it sounds pretty spot on!!!!

gillz1384    from officialspeedway forums
Comments