Speedealer - Screamer Chords & Tabs

 

Screamer Chords & Tabs

Speedealer Chords & Tabs

Version: 1 Type: Tab 0 ratings
1 star 2 stars 3 stars 4 stars 5 stars
comments

Screamer Tab

screamer
by speedealer
tabbed by soulstealer_88@yahoo.com



e:-------------------------------------------------|  6X
B:-------------------------------------------------|
G:-------------------------------------------------|
D:-------------------------------------------------|
A:----------000-111-2B-2B--------------------------|
E:--000-333----------------------------------------|



e:--------------------------------------------------|  3X
B:--------------------------------------------------|
G:--------------------------------------------------|
D:--------------------------------------------------|
A:--10--7--10--7--10--5-----------------------------|
E:--8---5--8---5--8---7-----------------------------|



e:--------------------------------------------------|
B:--5-7-5--7B---------------------------------------|
G:--5-7-5--7B-7B------------------------------------|
D:--------------------------------------------------|
A:--------------------------------------------------|
E:--------------------------------------------------|



e:--------------------------------------------------|  4X
B:--------------------------------------------------|
G:--------------------------------------------------|
D:--------------------------------------------------|
A:----------000-111-2B-2B---------------------------|
E:--000-333-----------------------------------------|


[ Tab from: http://www.guitartabs.cc/tabs/s/speedealer/screamer_tab.html ]
e:---------------------------------------------------| 3X
B:---------------------------------------------------|
G:---------------------------------------------------|
D:---------------------------------------------------|
A:--10--7--10--7--10--7------------------------------|
E:--8---5--8---5--8---5------------------------------|



e:---------------------------------------------------|
B:---------------------------------------------------|
G:---------------------------------------------------|
D:---------------------------------------------------|
A:--10--7--10--7--10--7--10-11-12-13-14-~~~-(14)-----|
E:--8---5--8---5--8---5--8--9--10-11-12-~~~-(12)-----|



e:----------------------------------------------------|  6x
B:----------------------------------------------------|
G:----------------------------------------------------|
D:----------------------------------------------------|
A:----------------------------------------------------|
E:--0h3p0--3--3--0-0--3p0--3h5-0----------------------|



e:----------------------------------------------------| 4x
B:----------------------------------------------------|
G:----------------------------------------------------|
D:----------------------------------------------------|
A:----------000-111-2B-2B-----------------------------|
E:--000-333-------------------------------------------|




e:-----------------------------------------------------|
B:-----------------------------------------------------|
G:-----------------------------------------------------|
D:-----------------------------------------------------|
A:--22-------------------------------------------------|
E:--00-------------------------------------------------|

 and that it, lates
Comments