Specials - Monkey Man Chords & Tabs

 

Monkey Man Chords & Tabs

Specials Chords & Tabs

Version: 1 Type: Tab 0 ratings
1 star 2 stars 3 stars 4 stars 5 stars
comments

Monkey Man Tab

   
----------------------------------------------------------------------------
			     MONKEY MAN- The Specials
----------------------------------------------------------------------------
Tabbed by:garlic bread?
Email:bords_knickords@hotmail.com

Tuning:EADBBe

Intro
e|--3------3----------------------8------10--------------------------------|
B|--3------3------6--5--3--0-------------10-------15-----------------------|
G|--4--5b--4--5b--6--5--3--0---/9----/11-----/16--16--16-------------------|
D|--5------5---------------------------------------------------------------|
A|-------------------------------------------------------------------------|
E|-------------------------------------------------------------------------|

e|--3------3------3--3--3--3--5--5---5--10---10---10\0---------------------|
B|--3------3------5--5--5--5--7--7---7--12---12---12\0---------------------|
G|--4--5b--4--5b--5--5--5--5--7--7---7--12---12---12\0---------------------|
D|--5------5------5--5--5--5--7--7---7--12---12---12\0---------------------|
A|----------------3--3--3--3--5--5---5--10---10---10\0---------------------|
E|-------------------------------------------------------------------------|

Verse/ Chorus (off beat ska strumming)
e|--3-3-3-3-3-3-3-3-3-3-3-3-------------3-3-3-3-3-3-3-3-3-3-3-3------------|
B|--3-3-3-3-3-3-3-3-3-3-3-3-5-5-5-7-7-7-3-3-3-3-3-3-3-3-3-3-3-3-5-5-5-7-7-7|
G|--4-4-4-4-4-4-4-4-4-4-4-4-5-5-5-7-7-7-4-4-4-4-4-4-4-4-4-4-4-4-5-5-5-7-7-7|
D|--5-5-5-5-5-5-5-5-5-5-5-5-5-5-5-7-7-7-5-5-5-5-5-5-5-5-5-5-5-5-5-5-5-7-7-7|
A|-------------------------------------------------------------------------|
E|-------------------------------------------------------------------------|
[ Tab from: http://www.guitartabs.cc/tabs/s/specials/monkey_man_tab.html ]
e|--3-3-3-3-3-3-3-3-3-3-3-3-------------3-3-3-3-3-3-3-3-3-3-3-3------------|
B|--3-3-3-3-3-3-3-3-3-3-3-3-5-5-5-7-7-7-3-3-3-3-3-3-3-3-3-3-3-3-5-5-5-7-7-7|
G|--4-4-4-4-4-4-4-4-4-4-4-4-5-5-5-7-7-7-4-4-4-4-4-4-4-4-4-4-4-4-5-5-5-7-7-7|
D|--5-5-5-5-5-5-5-5-5-5-5-5-5-5-5-7-7-7-5-5-5-5-5-5-5-5-5-5-5-5-5-5-5-7-7-7|
A|-------------------------------------------------------------------------|
E|-------------------------------------------------------------------------|

thats it. theres loads of little lead brakes played over this, but i cant be assed to
work them out, so work um out yourself.
the lyrics are:

This one's for the bouncers. Big, big Monkey Man 

Aye aye aye, aye aye aye 
Tell you baby, you huggin up the big monkey man 
Aye aye aye, aye aye aye 
Tell you baby, you huggin up the big monkey man 

I never saw you, I only heard of you 
huggin up the big monkey man 
I never saw you, I only heard of you 
huggin up the big monkey man 

It's no lie, it's no lie 
Them a tell me, you huggin up the big monkey man 
It's no lie, it's no lie 
Them a tell me, you huggin up the big monkey man 

Now I know that, now I understand 
You're turning a monkey on me 
Now I know that, now I understand 
You're turning a monkey on me 

Aye aye aye, aye aye aye 
Tell you baby, you huggin up the big monkey man 
Aye aye aye, aye aye aye 
Tell you baby, you huggin up the big monkey man 

I was on my way to Banbury Cross, 
Then I see a monkey upon a white horse 
With rings on he fingers, bells on him toes 
Sing a little song, wherever he be 
'Cos he's a monkey, 'cos he's a monkey 
'Cos he's a weedy little monkey man 

Aye aye aye, aye aye aye 
Tell you baby, you huggin up the big monkey man 
Aye aye aye, aye aye aye 
Tell you baby, you huggin up the big monkey man


| /  slide up
| \  slide down
| h  hammer-on
| p  pull-off
| ~  vibrato
| +  harmonic
| x  Mute note
============================================================================
This is ska so your supposed to have fun with it.
Peace Out :)
Comments