Special Guest - Chains Chords & Tabs

 

Chains Chords & Tabs

Special Guest Chords & Tabs

Version: 1 Type: Tab 0 ratings
1 star 2 stars 3 stars 4 stars 5 stars
comments

Chains Tab

Special Guest. Chains.
Tabbed by Paul Molyneux. Paulmolyneux@hotmail.com.
  
Riff 1. intro clean

e-----------------------------------------------------
B--4-x-4-4--6-x-6-6--8-6--6-x-6-6--10-11-x-11--------
G--4-x-4-4--4-x-4-4--6-4--6-x-6-6--10-11-x-11---------
D--2-x-2-2----------------4-x-4-4---8--9-x--9---------
A-----------------------------------------------------
E----------------------------------------------------- Play 1x Then play twice with distortion


Verse
e-----------------------------------------------------
B-----------------------------------------------------
G-9-11b--9-11b--9-11b---9-11b-11b(hold)----9--11b-----
D-----------------------------------------------------
A-----------------------------------------------------
E-----------------------------------------------------

e-----------------------------------------------------
B-----------------------------------------------------
G-9-11b--9--11b---9--6--------------------------------
D-----------------------------------------------------
A-----------------------------------------------------
E-----------------------------------------------------

Play the intro four times with distortion
[ Tab from: http://www.guitartabs.cc/tabs/s/special_guest/chains_tab.html ]
Solo
e-12--11--9--------12--11--9-----------------12--11--9
B---------12b---------------12--9--12--15-------------
G-----------------------------------------------------
D-----------------------------------------------------
A-----------------------------------------------------
E-----------------------------------------------------

e------12--11-9--12--11--9p12--9p11-------------------
B-12b-------------------------------------------------
G-----------------------------------------------------
D-----------------------------------------------------
A-----------------------------------------------------
E-----------------------------------------------------

e-----------------------------------------------------
B--7b------------7b--------------7b-------------------
G------9--6--9b------9--6--9---------9--6--9b---------
D-----------------------------9b----------------------
A-----------------------------------------------------
E-----------------------------------------------------


e-----------------------------------------------------
B--7B-------------------------------------------------
G------9--6--4----------------------------------------
D---------------4--2--0-------------------------------
A-----------------------------------------------------
E-----------------------------------------------------

Back into chourus

So it goes like this:
Riff 1:once (clean)
Riff 1:twice (distortion)
verse:once
Riff 1:four times (all distortion)
verse:once
Riff 1:four times (all distortion)
Solo:once
Riff 1:four times (all distortion)

 
:: Ultimate Guitar Archive :: 
http://www.ultimate-guitar.com
Comments