Special Goodness - Move It Along Chords & Tabs

 

Move It Along Chords & Tabs

Special Goodness Chords & Tabs

Version: 1 Type: Tab 0 ratings
1 star 2 stars 3 stars 4 stars 5 stars
comments

Move It Along Tab

IMPORTANT! READ!
----------------------------------------------------------------------------
This Is An Underground Rock Band with Drummer Pat Wilson (WEEZER) If You
Need To Check Them Out Go to www.thespecialgoodness.com
#--------------------------------PLEASE NOTE--------------------------------# 
This file is the author's own work and represents their interpretation of the 
song. You may only use this file for private study, scholarship, or research. 
#---------------------------------------------------------------------------#


     Song: Move It Along (Land Air Sea Album Version)
   Artist: The Special Goodness (P.Wilson)
Tabbed by: Steve Lopez (Steve@FMGreen.net - www.FMGreen.net)

If things look weird, stretch the window open all the way to fill up the screen. duh.

I'm just putting the notes down, the strumming is pretty straight-forward and you
all should be able to figure it out yourselves.

REVISED 4.24.2003: MAJOR OVERHAUL.  EVERYTHING HERE IS DIFFERENT THAN BEFORE.
NOW UP TO DATE WITH LATEST VERSION.

 _____
/Intro\

Play twice through.

  ~clean tone~
   10   10   4    4    4   4       <-----Times Each
E|-X--|-X--|--X-|--X-|-X-|-X-|
B|-0--|-0--|--0-|--0-|-0-|-0-|
G|-11-|-8--|--8-|--8-|-8-|-8-|
D|-9--|-6--|--6-|--X-|-6-|-X-|
A|-11-|-8--|--7-|--6-|-7-|-6-|
E|-X--|-X--|--X-|--7-|-X-|-7-|


 _______
/Verse 1\

E|-X-------------|-X------------|-X---------------|-X-------|
B|-0-------------|-0------------|-0---------------|-0-------|
G|-11------------|-11-----------|-8---------------|-8-------|
D|-9-------------|-9------------|-6---------------|-6-------|
A|-11------------|-11-----------|-8---------------|-8-------|
E|-X-------------|-X------------|-X---------------|-X-------|
       Dancin' in those brand new blue suede shoes again.


E|-X-----------X-|-X------|-X--------------------------X-|-X----|
B|-0-----------0-|-0------|-X--------------------------0-|-0----|
G|-8-----------8-|-8------|-8--------------------------8-|-8----|
D|-6-----------X-|-X------|-6--------------------------X-|-X----|
A|-7-----------6-|-6------|-7--------------------------6-|-6----|
E|-X-----------7-|-7------|-X--------------------------7-|-7----|
        Painted steps never take you where you haven't been.

[ Tab from: http://www.guitartabs.cc/tabs/s/special_goodness/move_it_along_tab.html ]
E|-X--------------------|-X----------|-X--------------|-X-------|
B|-0--------------------|-0----------|-0--------------|-0-------|
G|-11-------------------|-11---------|-8--------------|-8-------|
D|-9--------------------|-9----------|-6--------------|-6-------|
A|-11-------------------|-11---------|-8--------------|-8-------|
E|-X--------------------|-X----------|-X--------------|-X-------|
         There's nothing new under the great big sunny sky.


E|-X-----------------X-|-X----------|-X--------------------X-|-X----|
B|-0-----------------0-|-0----------|-X--------------------0-|-0----|
G|-8-----------------8-|-8----------|-8--------------------8-|-8----|
D|-6-----------------X-|-X----------|-6--------------------X-|-X----|
A|-7-----------------6-|-6----------|-7--------------------6-|-6----|
E|-X-----------------7-|-7----------|-X--------------------7-|-7----|
         There never is,      but you didn't even bother to try.


 ________


 ______
/Verse \

  clean --->
E|-X-------------|-X-------------|-X---------------|-X-------|
B|-0-------------|-0-------------|-0---------------|-0-------|
G|-11------------|-11------------|-8---------------|-8-------|
D|-9-------------|-9-------------|-6---------------|-6-------|
A|-11------------|-11------------|-8---------------|-8-------|
E|-X-------------|-X-------------|-X---------------|-X-------|
       Drivin' down that brand new six-lane road again.


E|-X------------X-|-X-----|-X--------------------------X-|-X----|
B|-0------------0-|-0-----|-X--------------------------0-|-0----|
G|-8------------8-|-8-----|-8--------------------------8-|-8----|
D|-6------------X-|-X-----|-6--------------------------X-|-X----|
A|-7------------6-|-6-----|-7--------------------------6-|-6----|
E|-X------------7-|-7-----|-X--------------------------7-|-7----|
        Painted lines never take you where you haven't been.


E|-X--------------------|-X----------|-X--------------|-X-------|
B|-0--------------------|-0----------|-0--------------|-0-------|
G|-11-------------------|-11---------|-8--------------|-8-------|
D|-9--------------------|-9----------|-6--------------|-6-------|
A|-11-------------------|-11---------|-8--------------|-8-------|
E|-X--------------------|-X----------|-X--------------|-X-------|
         There's nothing new under the great big sunny sky.


E|-X-----------------X-|-X----------|-X--------------------X-|-X----|
B|-0-----------------0-|-0----------|-X--------------------0-|-0----|
G|-8-----------------8-|-8----------|-8--------------------8-|-8----|
D|-6-----------------X-|-X----------|-6--------------------X-|-X----|
A|-7-----------------6-|-6----------|-7--------------------6-|-6----|
E|-X-----------------7-|-7----------|-X--------------------7-|-7----|
         There never is,      but you didn't even bother to try.


 ________
.made on a emachine.(copied from FMGreen.net
Comments