Spears Britney - Oops I Did It Again Chords & Tabs

 

Oops I Did It Again Chords & Tabs

Spears Britney Chords & Tabs

Version: 1 Type: Bass Tab 0 ratings
1 star 2 stars 3 stars 4 stars 5 stars
comments

Oops I Did It Again Bass Tab

BRITNEY SPEARS - "Oops...I Did It Again" - Bass Tab

Common Time(4/4)
Standard Tuning(EADG)

INTRO:
                    (x2)                        (x2)
|------------|----------|------------6p--|----------|
|*-.---.-----|---------*|*-.---.---------|---------*|
|*-4-r-4-r-r-|-r-e-s-t-*|*-4-r-4-r-r---r-|-r-e-s-t-*|
|------------|----------|----------------|----------|
   1 2 & 3 4   1 2 3 4     1 2 & 3 & a 4   1 2 3 4


1ST VERSE:
|---------|---------|-----------|-----6p------|-----------|
|-.-------|-.---_-_-|---7p------|-------------|-.-----.---|
|-4-r-r-r-|-4-r-4-7-|-.-----.---|-.-------.-_-|-4-r-4-3-r-|
|---------|---------|-5---r-5-r-|-4-r---r-4-4-|-----------|
  1 2 3 4   1 2 3 4   1 & 2 3 4   1 & a 2 3 4   1 2 & 3 4

|---------|-----------|---------|
|-.-------|---7p------|---------|
|-4-r-4-7-|-.-----.---|-.---.---|
|---------|-5---r-5-r-|-4-r-4-4\|
  1 2 3 4   1 & 2 3 4   1 2 3 4


PRE-CHORUS:
|-----------|---------|-------------|---------|
|-----------|---------|-------------|---------|
|-.---.-----|-.-------|-.-----------|---------|
|-2-r-2-r-2-|-4-r-4-4-|-5-r-5-5-5-7-|-r-e-s-t-|
  1 2 3 4 &   1 2 3 4   1 2 3 & 4 &   1 2 3 4


CHORUS:
|-------------|-----------|---------------|---------------|
|-.-----------|-.---------|---2p----.-----|---------------|
|-4-r-4-.-----|-4-r-4-3/7-|-.-------2-r-2-|-.-----2-2-3-3-|
|-------4-r-4-|-----------|-0---r-0-------|-0-r-0---------|
  1 2 & 3 4 &   1 2 & 3 4   1 & 2 & 3 4 &   1 2 & 3 & 4 &

|-------------|-----------|---------|--------------|
|-.-----------|-.---------|---------|--------------|
|-4-r-4-.-----|-4-r-4-3---|-.---.---|--------------| 
|-------4-r-4-|---------0-|-x-r-x-r-|-4-4-4-4/11\4-|
  1 2 & 3 4 &   1 2 & 3 4   1 2 3 4   1 2 3 4 &  a


2ND VERSE:
|---------|-----------|---------|---------|-no-idea!!!----|
|-.-------|---.-.-----|---------|---------|-.-.-_-.-.-----|
|-4-r-r-r-|-r-4-4-r-4-|-.---.---|-.---.-_-|-4-4-4-4-4-2-3-|
|---------|-----------|-5-r-5-r-|-4-r-4-4-|---------------|
  1 2 3 4   1 & 2 3 4   1 2 3 4   1 2 3 4   1 & 2 3 & 4 &
[ Tab from: http://www.guitartabs.cc/tabs/s/spears_britney/oops_i_did_it_again_btab.html ]
|-----6p------|-----------|---------|
|-------------|---7p------|---------|
|-4-------4-7-|-.-----.---|-.---.---|
|-------r-----|-5---r-5-r-|-4-r-4-4\|
  1 & a 2 3 4   1 & 2 3 4   1 2 3 4


PRE-BRIDGE:
|------------6p--|----------|
|*-.---.---------|---------*|
|*-4-r-4-r-r---r-|-r-e-s-t-*| (x2)
|----------------|----------|
   1 2 & 3 & a 4   1 2 3 4


BRIDGE:
|-----------|---------|---------|---------|
|----------*|---------|---------|---------|
|*-r-e-s-t-*|---------|---------|-4-------|
|-----------|-5-------|-7-----4-|---------|
   1 2 3 4    1 2 3 4   1 2 3 4   1 2 3 4 


END:
|---------|-----------|---------------|---------------|
|-.-----.-|-.---------|---2p----.-----|---------------|
|-4-r-r-2-|-4-r-4-3/7-|-.-------2-r-2-|-.-----2-2-3-3-|
|---------|-----------|-0---r-0-------|-0-r-0---------|
  1 2 3 4   1 2 & 3 4   1 & 2 & 3 4 &   1 2 & 3 & 4 &

|-------------|-----------|---------|--------------|
|-.-----------|-.---------|---------|--------------|
|-4-r-4-.-----|-4-r-4-3---|-.---.---|--------------| 
|-------4-r-4-|---------0-|-x-r-x-r-|-4-4-4-4/11\4-|
  1 2 & 3 4 &   1 2 & 3 4   1 2 3 4   1 2 3 4 &  a

|-------------|-----------|---------------|---------------|
|-.-----------|-.---------|---2p----.-----|---------------|
|-4-r-4-.-----|-4-r-4-3/7-|-.-------2-r-2-|-.-----2-2-3-3-|
|-------4-r-4-|-----------|-0---r-0-------|-0-r-0---------|
   1 2 & 3 4 &   1 2 & 3 4   1 & 2 & 3 4 &   1 2 & 3 & 4 &

|-------------|-----------|---------|--------------|
|-.-----------|-.---------|---------|--------------|
|-4-r-4-.-----|-4-r-4-3---|-.---.---|--------------| 
|-------4-r-4-|---------0-|-x-r-x-r-|-4-4-4-4/11\4-|
  1 2 & 3 4 &   1 2 & 3 4   1 2 3 4   1 2 3 4 &  a

|-------------|-----------|---------------|---------------|
|-.-----------|-.---------|---2p----.-----|---------------|
|-4-r-4-.-----|-4-r-4-3/7-|-.-------2-r-2-|-.-----2-2-3-3-|
|-------4-r-4-|-----------|-0---r-0-------|-0-r-0---------|
  1 2 & 3 4 &   1 2 & 3 4   1 & 2 & 3 4 &   1 2 & 3 & 4 &

|-------------|-----------|---------|---------|
|-.-----------|-.---------|---------|---------|
|-4-r-4-.-----|-4-r-4-3---|-.---.---|-.-------| 
|-------4-r-4-|---------0-|-x-r-x-r-|-4-r-r-r-|
  1 2 & 3 4 &   1 2 & 3 4   1 2 3 4   1 2 3 4 

By: Johari Taylor
E-mail: viking@powerup.com.au
More Bass Tabs: http://www.powerup.com.au/~viking/basstab.htm

Comments