Spastic Ink - To Counter And Groove In E Minor Chords & Tabs

 

To Counter And Groove In E Minor Chords & Tabs

Spastic Ink Chords & Tabs

Version: 1 Type: Bass Tab 0 ratings
1 star 2 stars 3 stars 4 stars 5 stars
comments

To Counter And Groove In E Minor Bass Tab

   
================================================================================
         Title : To Counter & Groove in E-Minor
        Artist : Spastic Ink
         Album : Inc Complete
Transcribed by : COYPU [joba01@student.bth.se] - http://medieteknik.bth.se/joba01/
================================================================================

SECTION A
G|----------------------------------|----------------------------------| 
D|----------------------------------|----------------------------------| 
A|-5-7---7-5-5-7---3-3-5-5----------|-5-7---7-5-5-7---3-3-2-2----------|
E|---------------------------3-3--5-|---------------------------3-3--2-|

REPEAT SECTION A

FILL 1
G|----------------|
D|----------------|
A|----9-9-7-7-9-9-|
E|----------------|

REPEAT SECTION A (without the last 3 notes)

FILL 2
G|--------------------------|
D|---------9-7--------------|
A|-8-10-11-----10-9-7-6-----|
E|----------------------8-7-|

REPEAT SECTION A

FILL 3
G|---------8----------|
D|-7---------10-9-7-7-|
A|---9-7-6------------|
E|--------------------|

REPEAT SECTION A : 2x
REPEAT FILL 2

REPEAT SECTION A
REPEAT FILL 1

REPEAT SECTION A
REPEAT FILL 2

SECTION B
G|-----------------------5-4-2-2-----------7-5-4-------------|
D|-------------------------------5-4-2-----------7---7-5-4---|
A|---------------2-3-2-----------------5-------------------7-|
E|-0---2-3-2-3-5---------------------------------------------|

G|------------------5-4-2---2-2-3-----------2-4-5----|
D|----------------------------------1-2-4------------|
A|-----------2-3-2-----------------------------------|
E|-2-3-2-3-5-----------------------------------------|

SECTION A : 2x

SECTION C :
G|-------------------------------------------------------|
D|-----------------2-------------------------------------|
A|-----2-------------------2-------------5---------5-----|
E|-2h3-------3-2-3---0-2-3---3-2-2---3-5-------2-3-------|

G|---------------------------------------------2---------|
D|-----------------2-----------------------------4-1-----|
A|-----2-------------------2-------------6---------------|
E|-2h3-------3-2-3---0-2-3---3-2-2---3-5-----------------|
[ Tab from: http://www.guitartabs.cc/tabs/s/spastic_ink/to_counter_and_groove_in_e_minor_btab.html ]
SECTION D (BASS SOLO) : 
G|----------------------------------------------------------------
D|------------6--------6-4-----------------7-4-6------------------
A|-4----4-6-7-----3-4------7-6-7-4--6-3-4--------7--6---4-2----4--
E|--------------5-------------------------------------------5-----

G|----------------------------------------------------------
D|-------/6---4---2-----------------------------------2-6---
A|-------------------6--4--6h7p7-4--------6-7-9-4-6-7-------
E|-4--------------------------------6-7-9-------------------

G|-------------------------------------------5-6-6---------4-6--
D|-------4-6-4-------------------------4-7-6-------7-4-6-7------
A|-4-6-7-------7-6---4-6-7-7-6-3-4-6-4--------------------------
E|-----------------4--------------------------------------------

G|-8----6-4-3----------------------------------------------------
D|------------6-4-6----4----------1h2p1-1------------------6-8-9-
A|-----------------------7-6-4-7----------4-2-1--------6-7-------
E|----------------------------------------------2--4-7-----------

G|-6-----------------6-----------7-6---------------6-----------6-
D|---7-------------9---7-------7-----7-------6-7-9---7-------7---
A|-----9---9-11-12-------9---9---------9---9-----------9---9-----
E|-------9-----------------9-------------9---------------9-------

G|---4----------------------------------------------------------
D|-6---7-6-4-----6-7-9-7-6------------7-6-----6-7-9-7-6---------
A|-------------8-----------9--------------9-8-----------8-5-----
E|-----------9---------------10-9-7-4-----------------------9-7-

G|-6---------------6-------------7-6---------------6--------------
D|---7-------6-7-9---7-------7-9-----7-------6-7-9---8-----8-11-8-
A|-----9---9-----------9---9-----------9---9-----------9----------
E|-------9---------------9---------------9---------------9--------

G|-8---------------8-----------9---8-------------4-4-----------4-|
D|---9-----------7---9-------7---7---9---------4-----4-------4---|
A|-----9-7-6-7-9-------9-7-9-----------9-6---6---------6---6-----|
E|-----------------------------------------7-------------7-------|

REPEAT SECTION A : 3x
REPEAT FILL 2

REPEAT SECTION A : 1x
REPEAT FILL 3

REPEAT SECTION B : 2x
REPEAT SECTION A : 2x
REPEAT SECTION C : 2x

END:
|-9---8---9-|
|-----------|
|-----------|
|-----------|
Comments