Spastic Ink - That 178 Thing Chords & Tabs

 

That 178 Thing Chords & Tabs

Spastic Ink Chords & Tabs

Version: 1 Type: Bass Tab 0 ratings
1 star 2 stars 3 stars 4 stars 5 stars
comments

That 178 Thing Bass Tab

   
"THAT 178 THING", by spastic ink.  BASS TAB by Alan Goldstein , 
use 3 fingers on the right hand when possible for the fastest parts only...

Solo and some small fixes by : Coypu.

SECTION A
------------------------4321-------------------|-------------4321----------------------------
----------------2---------------4321-----------|---------2----------432----------------------
-444-------------------------------------------|--------------------------1----444-4-4444----
------0-0-----------------------------55-4-----|-0-0-----------------------------------------

------------------------4321-------------------|--------4321-------------------
----------------2---------------4321-----------|-----2--------423--------------
-----------------------------------------------|-------------------------------
------0-0-----------------------------55-4-----|-0-0-------------------0012101-

repeat whole thing once as played above... 
then into .22 seconds of tune here:

SECTION B
---------------------------------------------4-------------------------------------------
-----4-----------3-------------2--------3-3-----3--------------2-------1---------0-------    
-----------------------------------------------------------------------------------------
44-----4----55----5---5-----66---6-----------------11--11---22---2--33---3-3--44----4----

---7654567654-------------------------
---------------8765-7654--------------
------------------------------8765---- 
--------------------------------------         
 
repeat above once, then into:
@ .46 secs:   

SECTION C
----------------------------------------------------------------
----------6--------------5-------------6--------------5--------- 
66-333-33---33-22--333-33-33-2-333-333---33-22-333-33---666-333-
----------------------------------------------------------------

---------------------------------------------
---6-----------5---6-------------5-----------
-33-33--22--333-33---33--2-333-33-33-2-333-3-
---------------------------------------------

back to beginning,  altered with this fill thrown in, you can hear where... (@ 1:07) 

FILL 1
------------------
-----2--------1---
111---000---------
------------------

then later @ 1:40
they change that fast riff to shorten it to this: 
[ Tab from: http://www.guitartabs.cc/tabs/s/spastic_ink/that_178_thing_btab.html ]
SECTION D
7654567654---------------------------------------------------------
---------------98768765------bass-VS.-gtr-contrapuntal-part-here:-
-------------------------------------------------------------------
-------------------------------------------------------------------

----7654----------------------------------------------
----------7654------3--555-6---2222-4-5----1-111-11---
------------------------------------------------------
------------------------------------------------------

repeats a few times, listen for altered "drone" spot, 
where they lay on that D# as a trick!!!

then @ 2:03  
the breakdown (the time to catch your breath!!! lol)

SECTION E
----------------------------------------------
4---3---2-----------repeat once,then up high!-
--5---4-------3-------------------------------
----------------------------------------------

-------14--------------13-------------12-------------8-----------
-----16--15----------15--14---------14--14---------10-10---------
---16------16------15------15-----14------14-----10-----10-------
-14----------17--13----------16-12----------12--8---------8------

REPEAT SECTION C
REPEAT SECTION D

BASS SOLO
----------------------1-3---------------------------------------
------------2-3-5-3-5-----------4---4-5-7-5-4-------------4-5---
--------4-5---------------4-6-7---7-----------7-6---3-5-6-------
--2-4-5---------------------------------------------------------

------46--------------5-----12----------2-----------------------
-467-7-----3-75-356-68---124--45421-2455421---------5421-1-4--
---------45-5-----------4---------------------4-3---3---------/5
--------------------------------------------------3-------------

---2------------------1-----------42--------------------12-421-
-53----75--------6---2-42-------75--52-------3------3--4-------
-----57--85----34---4-----6-7-5/-------643-68-65-356----------
-------------1/----4-------------------------------------------

---------------------------------2-425-------------------------
--23-532-356-865-----421-----5-45------4-2-1-------------------
-5---------------467-----7-9-----------------3-2-3-------------
---------------------------------------------------4-3-1-3-/---

REPEAT SECTION C
REPEAT SECTION A
OUTRO (FILL 1)

thanks, alan , bassist from aghora
deezcuts@hotmail.com
peace.
Comments