Sparta - Vacant Skies Chords & Tabs

 

Vacant Skies Chords & Tabs

Sparta Chords & Tabs

Version: 1 Type: Tab 0 ratings
1 star 2 stars 3 stars 4 stars 5 stars
comments

Vacant Skies Tab

VERSE:	 GUITAR 1
e|------------------------------------------------------------------|
B|------------------------------------------------------------------|
G|----------------------------------------------9---9---------------|
D|-0-0--4---7/9-------------0-0--4---7/9---9-7----7-----------------|
A|--------5-----7-9-5--2-0---------5-----7--------------------------|
E|------------------------------------------------------------------|
	GUITAR 2

e|-----12-12-12-/-10-10-10------------------------------------------|
B|-----X--X--X--/-X--X--X-------------------------------------------|
G|-----9--9--9--/-7--7--7-------------------------------------------|
D|-----0--0--0--/-0--0--0-------------------------------------------|
A|-----0--0--0----0--0--0-------------------------------------------|
E|------------------------------------------------------------------|

CHORUS:GUITAR 1

e|----------12-------------------------------12---------------------|
B|----------10-------------------------------10---------------------|
G|--9/11-11-11-----9-7/6-9/11-11-11-------------------------------|
D|--X/X--X--X----------------X-X/X-X/X-XX-----------------------|
A|--7/9--9--9----------------7-5/4-7/9-99-----------------------|
E|------------------------------------------------------------------|
	GUITAR 2

e|------------------------------------------------------------------|
B|------------------------------------------------------------------|
G|------------------------------------------------------------------|
D|--4-4-4/5-5-5-----------------------------------------------------|
A|--4-4-4/5-5-5-----------------------------------------------------|
E|--2-2-2/3-3-3-----------------------------------------------------|

VERSE2:GUITAR 1

e|------------------------------------------------------------------|
B|------------------------------------------------------------------|
G|----------------------------------------------9---9---------------|
D|-0-0--4---7/9-------------0-0--4---7/9---9-7----7-----------------|
A|--------5-----7-9-5--2-0---------5-----7--------------------------|
E|------------------------------------------------------------------|
	GUITAR 2

e|--------X-10-X-10-X-10--14---------------------------------------|
B|--------X--X--X-X-X-X---X----------------------------------------|
G|--------X--7--X-7-X-7---11---------------------------------------|
D|--------X--0--X-0-X-0---0----------------------------------------|
A|------------------------------------------------------------------|
E|------------------------------------------------------------------|




[ Tab from: http://www.guitartabs.cc/tabs/s/sparta/vacant_skies_tab.html ]

BRIDGE: GUITAR 1

e|--------------2---------------------------------------------------|
B|------3-----3---3-------------------------------------------------|
G|----2-----2-------------------------------------------------------|
D|--0----0----------------------------------------------------------|
A|------------------------------------------------------------------|
E|------------------------------------------------------------------|
	GUITAR 2

e|-14-14-14-19-14-17-14-17-14-17-14-17-14-15-14-15-14-15-14-15------|
B|------------------------------------------------------------------|
G|------------------------------------------------------------------|
D|------------------------------------------------------------------|
A|------------------------------------------------------------------|
E|------------------------------------------------------------------|

INTERLUDE: GUITAR 1

e|------------------------------------------------------------------|
B|------------------------------------------------------------------|
G|----------11-11---------11-B-11-----------------------------------|
D|----------X--X----------X--B-X------------------------------------|
A|--X-X-X-X-9--9--X-X-X-X-9--B-9------------------------------------|
E|------------------------------------------------------------------|
GUITAR 2

e|------------------------------------------------------------------|
B|------------------------------------------------------------------|
G|------------------------------------------------------------------|
D|--0------0-0------0-0---0---0------0--0------0--0----------------|
A|--12-X-X-9--12-X-X-9-12--12--12-X-X-9--12-X-X-9--12---------------|
E|------------------------------------------------------------------|

INTERLUDE CNT:	GUITAR 1

e|------------------------------------------------------------------|
B|------------------------------------------------------------------|
G|--9-9-9--6-6--9-9-9-----------------------------------------------|
D|--X-X-X--X-X--X-X-X-----------------------------------------------|
A|--7-7-7--4-4--7-7-7-----------------------------------------------|
E|------------------------------------------------------------------|
GUITAR 2

e|------------------------------------------------------------------|
B|------------------------------------------------------------------|
G|------------------------------------------------------------------|
D|--0------0-0------0-0---0---0------0--0------0-0----------------|
A|--12-X-X-9--12-X-X-9-12--12--12-X-X-9--12-X-X-9--12---------------|
E|------------------------------------------------------------------|
Comments