Sparta - Syncope Chords & Tabs

 

Syncope Chords & Tabs

Sparta Chords & Tabs

Version: 1 Type: Tab 0 ratings
1 star 2 stars 3 stars 4 stars 5 stars
comments

Syncope Tab

Album: Porcelain
Song: Syncope
Tuning:Standard
Tabber:Tom
Email:flemingoboy@adelphia.net

I used the basis of another Syncope tab I saw for this one.
Played with a shitload of reverb, delay, and distortion.

Line One
|-------------12----12/14-(delays so it sounds like --|
|-------10------------------your sliding up twice)---|
|----11----11----11----------------------------------|
|----------------------------------------------------|
|----------------------------------------------------|
|-10-------------------------------------------------|
[ Tab from: http://www.guitartabs.cc/tabs/s/sparta/syncope_tab.html ]
Line Two 
|------------------------|
|------10----10----10----|
|---11----11----11----11-|
|------------------------|
|-9----------------------|
|------------------------|

Line Three
|------9---9---9-9/10-|
|---------------------|
|---------------------|
|----9---9---9--------|
|---------------------|
|-\7------------------|

Line Four         1st     2nd
|------9----9----|10----|-10~-|
|---10---10---10-|---10-|-----|
|----------------|------|-----|
|----------------|------|-----|
|-9--------------|------|-----|
|----------------|------|-----|

End on
|-----|
|-----|
|-----|
|-0~--|
|-0~--|
|-10~-|

Order
Line One (1x)
Line Two (1x)
Line One (1x)
Line Two (1x)
Line Three (1x)
Line Four (1x)
Line Three (1x)
Line Four (1x)
Repeat all of this
End On the chord above
Comments