Sparta - Red Alibi Chords & Tabs

 

Red Alibi Chords & Tabs

Sparta Chords & Tabs

Version: 1 Type: Tab 0 ratings
1 star 2 stars 3 stars 4 stars 5 stars
comments

Red Alibi Tab

   
Sparta - Red Alibi
Tabbed By: Neil
EMail: GodsFiveIron@hotmail.com


Tuning: Standard (E A D G B E)

[ Tab from: http://www.guitartabs.cc/tabs/s/sparta/red_alibi_tab.html ]
This is dead on...and I know...it...however I did do it from memory..
just me and my acoustic guitar at 10:30 at night...however use plenty
of distorion when you play...although it sounds great acoustic too...
I am aware there are some parts missing...I will give them to you when
I get the cd back....but....have fun with this...support Sparta....
they rock!...by the way....the order of the song is way simple!
E|Intro/Chorus--------------------------------------------------||
B|--------------------------------------------------------------||
G|--------------------------------------------------------------||
D|-44-xx-55-xx-4-7-4-0-77-xx-77-xx----------x2------------------||
A|-55-xx-44-xx---------77-xx-77-xx------------------------------||
E|-33-xx-33-xx---------55-xx-55-xx-5-7-7------------------------||

E|Second Guitar (continued intro)-------------------------------||
B|--------------------------------------------------------------||
G|-9-----7-----14------16-----18-----19-------------------------||
D|---x8----x8-----x16-----x8-----x4-----x4------------44--------||
A|-7-----5-----12------14-----16-----17-----19(bend)--55--------||
E|----------------------------------------------------33--------||

E|Verses--------------------------------------------------------||
B|--------------------------------------------------------------||
G|--------------------------------------------------------------||
D|---4---4---4---4---7---7---9---9------------------------------||
A|--5-5-5-5-5-5-5-5-7-7-7-7-9-9-9-9-----------------------------||
E|-0---0---3---3---5---5---7---7--------------------------------||
Comments