Sparta - Glasshouse Tarot Chords & Tabs

 

Glasshouse Tarot Chords & Tabs

Sparta Chords & Tabs

Version: 1 Type: Bass Tab 0 ratings
1 star 2 stars 3 stars 4 stars 5 stars
comments

Glasshouse Tarot Bass Tab

Sparta
Glasshouse Tarot
Drop D tuning
Tabbed by Mavrick45
Mavrick_45@sugarray.com



Part one  X8
G---------------------------7---2------------------
D--------5---4-------------------------------------
A---5-------------5---5-------------2---2----------
D----------------------------------------------5---


Part two  X2
G---------------------------------
D-----------17---16---------------
A---5/17---------------17---------
D-----------------------------0---


Part three  X4
G-------------------------------------------------------
D-----------17---16---------------17---16---------------
A---5/17---------------17---17---------------17---17\---
D-------------------------------------------------------


Part four  X2
G--------------------------------------------
D--------------------------------------------
A---55555555---22222222---0000000000000000---
D--------------------------------------------
[ Tab from: http://www.guitartabs.cc/tabs/s/sparta/glasshouse_tarot_btab.html ]
	G-----------------------------------------
	D-----------------------------------------
	A-----------------------------------------
	D---5555555555555555---7777777777777777---


Part two X2
Part three X4
Part four X2



Part five X4
G-----------------------------------
D-----------------------------------
A---2---4---------------------------
D------------2---4---0---[-2--4--0-]last time only


Part six X6
G--------------------------------------------------------
D--------5---4-------------5---4-------------------------
A---5-------------5---5-------------5---5---2---2--------
D----------------------------------------------------5---


Part seven X5
G-----------------------------------------------------------
D------5---4---------5---4---------5---4--------------------
A---5---------5---5---------5---5---------5---5---222-------
D-------------------------------------------------------5555 [-0~-]last time only
Comments