Sparta - Cut Your Ribbon Chords & Tabs

 

Cut Your Ribbon Chords & Tabs

Sparta Chords & Tabs

Version: 1 Type: Tab 0 ratings
1 star 2 stars 3 stars 4 stars 5 stars
comments

Cut Your Ribbon Tab

Intro(starts at about 0:05)
(only one guitar, clean)
|------------------------------------|
|------------------------------------|
|-12-121212-11111111--9-9999-9-9-9---|
|-x--x-x-x--x-x-x-x---x-xxxx-x-x-x---|
|-13-131313-12121212--9-9999-101010--|
|------------------------------------|

|---------------------------------------------|
|---------------------------------------------|
|-----111111------1111-----111111----11-11----|
|------x-x-x-------x-x------x-x-x-----x--x----|
|------9-9-9-------9-9------9-9-9-----9--9----|
|-0-0----------0---------0---------0----------|
(play the whole thing twice, then this):

|----------------------------|
|----------------------------|
|-9--9--9-9---x--9--9---9-9--|
|-x--x--x-x---x--x--x---x-x--|
|-11-11-1111--x--11-11--1111-|
|----------------------------|

verse
wake up! Can you hear me?

gu. 1(distortion)
|------------------------------------|
|------------------------------------|
|-12-121212-11111111--9-9999-9-9-9---|
|-x--x-x-x--x-x-x-x---x-xxxx-x-x-x---|
|-13-131313-12121212--9-9999-101010--|
|------------------------------------|

gu. 2
|-------------------------------|
|-------------------------------|
|-16-161616--12-121212-141414---|
|--x--x-x-x---x--x-x-x--x-x-x---|
|-14-141414--10-101010/121212---|
|-------------------------------|
(then both play this bit, of course)

|---------------------------------------------|
|---------------------------------------------|
|-----111111------1111-----111111----11-11----|
|------x-x-x-------x-x------x-x-x-----x--x----|
|------9-9-9-------9-9------9-9-9-----9--9----|
|-0-0----------0---------0---------0----------|

Chorus
Cut your ribbon...

gu.1
|---------------------------------------------|(the last two chords can
|---------------------------------------------|be played lower on the neck,
|---------888888------------------------------|on the A and G strings, if
|-2222----xxxxxx----2121212121--1919191919----|it suits you)
|-2222----666666-----x-x-x-x-x---x-x-x-x-x----|
|-0000--------------1919191919--1717171717----|
[ Tab from: http://www.guitartabs.cc/tabs/s/sparta/cut_your_ribbon_tab.html ]
gu. 2
|---------------------------------|
|---------------------------------|
|---------888888---44444--22222---|
|-2222----xxxxxx---44444--22222---|
|-2222----666666---22222--00000---|
|-0000----------------------------|

and then this shows up after the chorus:
|----------------------------|
|----------------------------|
|-9--9--9-9---x--9--9---9-9--|
|-x--x--x-x---x--x--x---x-x--|
|-11-11-1111--x--11-11--1111-|
|----------------------------|

second chorus:
(pretty much the same, except after it's played twice,
paul does this):

|------------------------------------------------|
|------------------------------------------------|
|-2323232323-2121212121--------------------------|
|--x-x-x-x-x--x-x-x-x-x--2121212121--1919191919--|
|-1919191919-1717171717---x-x-x-x-x---x-x-x-x-x--|
|------------------------1919191919--1717171717--|
(if you don't have a 24-fret guitar, I transcribed
this part for a 21 or 22 at the bottom)

interlude:
gu. 1
|---------------------------------------------|
|---------------------------------------------|
|-----111111------1111-----111111----11-11----|
|------x-x-x-------x-x------x-x-x-----x--x----|
|------9-9-9-------9-9------9-9-9-----9--9----|
|-0-0----------0---------0---------0----------|
(palm mute this, this time)

gu.2(lots of effects, you figure them out, I just use
     a delay.)
|-----------------|------------------|
|-------8-------8-|------------------|
|-----9-------9---|-999999---777777--|
|-9--9-9--9--9-9--|------------------|
|-----------------|------------------|
|-----------------|------------------|
       (x4)


Outro
|---------------------------------------------|
|---------------------------------------------|
|-----111111------1111-----111111----11-11----|
|------x-x-x-------x-x------x-x-x-----x--x----|
|------9-9-9-------9-9------9-9-9-----9--9----|
|-0-0----------0---------0---------0----------|



Second Chorus(for 22-fret guitar)
|---------------------------------------------------|
|-1919191919----------------------------------------|
|--x-x-x-x-x--212121212121--------------------------|
|-1616161616---x-x-x-x-x-x--2121212121--1919191919--|
|-------------191919191919---x-x-x-x-x---x-x-x-x-x--|
|---------------------------1919191919--1717171717--|
song structure:

intro
verse
chorus
verse
chorus
interlude
chorus
ourtro




There. Nothin' too hard about it.
Comments