Sparta - Air Chords & Tabs

 

Air Chords & Tabs

Sparta Chords & Tabs

Version: 1 Type: Tab 0 ratings
1 star 2 stars 3 stars 4 stars 5 stars
comments

Air Tab

Sparta - Air
by scott rea (scottrea@tbaytel.net)
tabbed for 2 standard tune guitars


#1
--------------------
-----2-----2------2-
---2-----2------2---
-0-----0------0-----
--------------------
--------------------
#2
theres a cool bass line here that goes:
--7--9--5--3--


#1
--------------------
-------6-4----------
-7-5-4-----4-6------
--------------------
--------------------
--------------------
#2
---------------
-------------2-
-----------2---
--0h1p0-1------
---------------
---------------

[ Tab from: http://www.guitartabs.cc/tabs/s/sparta/air_tab.html ]
#1
-x-x--5--
-x-x--7--
-x-x--7--
---------
---------
---------
#2
---------------
-------------2-
-----------2---
--0h1p0-1------
---------------
---------------


disto.
both guitars, one guitar, whatever...
--------------------------------------
--------------------------------------
--------------------------------------
--------------------------------------
--9/10---5--9/10---5--9/10----12//////
--7/8----3--7/8----3--7/8-----10//////


-----------------------------------------------
-----------------------------------------------
-----------------------------------------------
-----------------------------------------------
-9/10-9/10--9/10--5--9/10---5--9/10----12//////
-7/8--7/8---7/8---3--7/8----3--7/8-----10//////

this is different than one ive seen around, but hey, variety is the spice of life, isnt it
Comments