Sparks - This Town Aint Big Enough For The Both Of Us Chords & Tabs

 

This Town Aint Big Enough For The Both Of Us Chords & Tabs

Sparks Chords & Tabs

Version: 1 Type: Tab 0 ratings
1 star 2 stars 3 stars 4 stars 5 stars
comments

This Town Aint Big Enough For The Both Of Us Tab

   
-------------------------------------------------------------------------------
	THIS TOWN AINT BIG ENOUGH FOR THE BOTH OF US - Sparks
-------------------------------------------------------------------------------
Tabbed by:Cyrus187
Email:coldstorerage@hotmail.com

Tuning:Standard 1-6 eadgbE

Organ & singing at the start

Zoo time is she & you time>>>This Town Ain't big enough for the both of us
e|----------|
B|----------|
G|----------|
D|-----2-1--|
A|-0-2------|
E|----------|

And It Aint me who's gonna leave
e|-----------------------------------|
B|-----7---7---7---------------7-5---|
G|-7-6---6---6-----7-6h7p6h7p6-----6-|X4
D|-----------------------------------|
A|-----------------------------------|
E|-----------------------------------|

Flying, Domestic...
e|-------------------------------------|
B|-------------------------------------|
G|-7---5--4----7--7--7--7--5--5--4--4--|
D|-7---5--4----7--7--7--7--5--5--4--4--|
A|-5---3--2----5--5--5--5--3--3--2--2--|
E|-------------------------------------|

This Town...
e|---------|
B|---------|
G|---------|
D|-----2-1-|
A|-0-2-----|
E|---------|

(on each word) And it aint...
e|-----------------|
B|-----------------|
G|-7-7-7-7-7-7-7-7-|
D|-7-7-7-7-7-7-7-7-|
A|-5-5-5-5-5-5-5-5-|
E|-----------------|

And It Aint me who's gonna leave
e|------------------------------------|
B|-----------------------------7-5----|
G|-7-6---6---6-----7-6h7p6h7p6-----6~-|X2
D|-----7---7---7----------------------|
A|------------------------------------|
E|------------------------------------|

Daily, Except for...
e|-------------------------------------|
B|-------------------------------------|
G|-7---5--4----7--7--7--7--5--5--4--4--|
D|-7---5--4----7--7--7--7--5--5--4--4--|
A|-5---3--2----5--5--5--5--3--3--2--2--|
E|-------------------------------------|

This Town...
e|---------|
B|---------|
G|---------|
D|-----2-1-|
A|-0-2-----|
E|---------|

(on each word) And it aint...
e|-----------------|
B|-----------------|
G|-7-7-7-7-7-7-7-7-|
D|-7-7-7-7-7-7-7-7-|
A|-5-5-5-5-5-5-5-5-|
E|-----------------|

e|---------------|
B|---------------|
G|-7-6---6---6---|
D|-----7---7---7-|
A|---------------|
E|---------------|

e|----------------------------------------|
B|----------------------------------------|
G|-7777-7777-5555-5555-4444-4444-22222222-|
D|-7777-7777-5555-5555-4444-4444-22222222-|
A|-5555-5555-3333-3333-2222-2222-00000000-|
E|----------------------------------------|

e|-------------------------------|
B|-------------------------------|
G|-7777-7777-5555-5555-4444-4444-|
D|-7777-7777-5555-5555-4444-4444-|
A|-5555-5555-3333-3333-2222-2222-|
E|-------------------------------|
[ Tab from: http://www.guitartabs.cc/tabs/s/sparks/this_town_aint_big_enough_for_the_both_of_us_tab.html ]
e|-12(14)-12(14)-12(14)-15p12-------15p12-------|
B|----------------------------15p12-------15p12-|
G|----------------------------------------------|
D|----------------------------------------------|X2
A|----------------------------------------------|
E|----------------------------------------------|


e|-12(14)-12(14)-12(14)-12(14)-12(14)-12(14) 12\\\\\\\\\\\\-|
B|----------------------------------------------------------|
G|----------------------------------------------------------|
D|----------------------------------------------------------|
A|----------------------------------------------------------|
E|----------------------------------------------------------|

Shower, another shower...
e|-------------------------------------|
B|-------------------------------------|
G|-7---5--4----7--7--7--7--5--5--4--4--|
D|-7---5--4----7--7--7--7--5--5--4--4--|
A|-5---3--2----5--5--5--5--3--3--2--2--|
E|-------------------------------------|

This Town...
e|---------|
B|---------|
G|---------|
D|-----2-1-|
A|-0-2-----|
E|---------|

(on each word) And it aint...
e|-----------------|
B|-----------------|
G|-7-7-7-7-7-7-7-7-|
D|-7-7-7-7-7-7-7-7-|
A|-5-5-5-5-5-5-5-5-|
E|-----------------|

And It Aint me who's gonna leave
e|------------------------------------|
B|-----------------------------7-5----|
G|-7-6---6---6-----7-6h7p6h7p6-----6~-|X4
D|-----7---7---7----------------------|
A|------------------------------------|
E|------------------------------------|

e|------------------------------------|
B|-----------------------------{7}----|
G|-7-6---6---6-----{7}-{7}-{5}--------|
D|-----7---7---7----w-----------------|
A|------------------------------------|
E|------------------------------------|

e|------------------------------------|
B|------------------^-----------------|
G|-7-6---6---6-----{7}-5-3-2----------|
D|-----7---7---7----------------------|
A|------------------------------------|
E|------------------------------------|

Census, the latest
e|-------------------------------------|
B|-------------------------------------|
G|-7---5--4----7--7--7--7--5--5--4--4--|
D|-7---5--4----7--7--7--7--5--5--4--4--|
A|-5---3--2----5--5--5--5--3--3--2--2--|
E|-------------------------------------|

This Town isn't big enough, not big enough, for...
e|------------------------|
B|------------------------|
G|-7-77-77-77-77-77-77-77-|
D|-7-77-77-77-77-77-77-77-|
A|-5-55-55-55-55-55-55-55-|
E|------------------------|

(on each word) And it aint...
e|-----------------|
B|-----------------|
G|-7-7-7-7-7-7-7-7-|
D|-7-7-7-7-7-7-7-7-|
A|-5-5-5-5-5-5-5-5-|
E|-----------------|

| {7} Play with wah-wah bar depressed
|  w
|  ^
| {7} Play with rising wah-wah bar
| \  slide down
| h  hammer-on
| p  pull-off
===============================================================================
Comments