Sparkle Sharks - Your Blank Canvas Chords & Tabs

 

Your Blank Canvas Chords & Tabs

Sparkle Sharks Chords & Tabs

Version: 1 Type: Tab 0 ratings
1 star 2 stars 3 stars 4 stars 5 stars
comments

Your Blank Canvas Tab

   
i dont need to be some marathon running fool
like open heart surgery flake dont make mistakes
open all the cracks open all the cracks take me
back to the lab i dont wanna be the man to make a move now
take back the badge the shirt for all that im worth all im worth dusty
sprinkle in the dirt shower take a flower take a look
look see the face cant escape the man disgrace
replace replace the man or the face the man or the face

i dont know
i dont know
i dont know
i dont know

cut your hair and get a real life dont
make your move sittin in a bathtub with the snake
spit on my feet dont expect a hearty welcome im a freak
youre a freak dont you like my facial
disconnected-ected run the line ill be o..
..k dont forget me ill come after follow you
if you can ill be everything you hate in this world
escape escape the place everything is on its way

i dont know
i dont know
i dont know
i dont know

your blank canvas sells for a million
while a poet is bleeding to feed his children
if i know then you must know
[ Tab from: http://www.guitartabs.cc/tabs/s/sparkle_sharks/your_blank_canvas_tab.html ]
verse:
-----------------------------------------------------------------
-----------------------------------------------------------------
----0-----0------------0--------------------------------------------
---2-2---2-2----x4----2-2--x4----------------------------------------------
--2---2-0---0--------0---0---------------------------------------------
-0-----0-----0------2------------------------------------------------

chorus:
-----------------------------------------------------------------
-----------------------------------------------------------------
----0-----0--------------------------------------------------------
---2-2---2-2---x4------------------------------------------------------
--2---2-0---0--------------------------------------------------------
-0-----3-----------------------------------------------------------

post chorus/bridge:
E Gm x4 E Gm Am x4 C#m

on last time pick
-----------------------------------------------------------------
---------0--------------------------------------------------------
------0---0-0-----x4--------------------------------------------------
-----2-2---2-2-------------------------------------------------------
----2---2-----2-----------------------------------------------------
---0--------------------------------------------------------------

end on C#m
------3-----------------------------------------------------------
------4-----------------------------------------------------------
------3-----------------------------------------------------------
------5-----------------------------------------------------------
------3-----------------------------------------------------------
------3-----------------------------------------------------------
Comments