Sparkle Sharks - Let Me Be Chords & Tabs

 

Let Me Be Chords & Tabs

Sparkle Sharks Chords & Tabs

Version: 1 Type: Tab 0 ratings
1 star 2 stars 3 stars 4 stars 5 stars
comments

Let Me Be Tab

   
verse 1:

let me be the one you give your hugs and kisses to
let me erase all your bad memories the times we have been through
i know i may appear the sentimental type of guy
but you use the other men you see to be dominated by

chorus:

hugs and kisses love and honesty
time passes and youre moving on from me
every day i see your broken photo's 
you're walking further away from me 

verse 2:

ignite the light thats inside my eyes and let me be
ignite the heart and plant it by a cherry tree 
i know the shit you are is what you're like im not to blame
but you always bypass my wounded heart in your sick little game

chorus:

hugs and kisses love and honesty
time passes and youre moving on from me
every day i see your broken photo's 
you're walking further away from me

verse 3:
[ Tab from: http://www.guitartabs.cc/tabs/s/sparkle_sharks/let_me_be_tab.html ]
im tagging along like a frightened child but you're throwing me away
like dirty rubbish, broken plates and military decay
save me from existence in a cruel and heartless land
theres only one way to salvation give me your open hand 

chorus:

hugs and kisses love and honesty
time passes and youre moving on from me
every day i see your broken photo's 
you're walking further away from me

verse:
-------------------------------------
----0----3-----------------------------
-----1----0----x8------------------------
---2----0------------------------------
-------------------------------------
--0----3-------------------------------

chorus:
---0----2h3p2------------------------------
----1---------------------------------
--0----2-------x8------------------------
------0-------------------------------
-3------------------------------------
-------------------------------------

C D C D
Comments