Spark - Coming Down Chords & Tabs

 

Coming Down Chords & Tabs

Spark Chords & Tabs

Version: 1 Type: Tab 0 ratings
1 star 2 stars 3 stars 4 stars 5 stars
comments

Coming Down Tab

% repeat



E- |-------0---------------------0---------------0------------------0----------------------0--------------------0-------------
B- |-----------------------------------------------------------------------------------------------------------------------------
G- |---2-------2----------2---------2-------2------2---------2----------2-----------2---------2----------2---------2-------
D- |-------------------------------------------------------------------------------4---------------------4----------------------
A- |-0----------------0---------------------------------------------------------------------------------------------------------
E- |---------------------------------------0---------------0--------------------------------------------------------------------


[ Tab from: http://www.guitartabs.cc/tabs/s/spark/coming_down_tab.html ]
E- |------------0------------------------------0------------|-------------------------------------------------------------------
B- |---------------------------------------------------------|-------------------------------------------------------------------
G- |-------2----------2-------------2---------------2------|-------------------------------------------------------------------
D- |--0-----------------------0-----------------------------|-----% 2 x’s-----------------------------------------------------
A- |---------------------------------------------------------|-------------------------------------------------------------------
E- |---------------------------------------------------------|-------------------------------------------------------------------



E- |------------0-------------------------------0----------------------------------0--------------------------------------------
B- |---------------------3----2------------------------------3-------2-------------------------3-----2------------2-------3--
G- |-------2---------2--------------------2----------2------------------------2----------2------------------------------------
D- |-----------------------------------------------------------------------------------------------------------------------------
A- |--0-----------------------------0---------------------------------------0----------------------------------0---------------
E- |-----------------------------------------------------------------------------------------------------------------------------



E- |------------------------- -|--------------------------------------------------------------------------------------------------
B- |---------2-------3-------|--------------------------------------------------------------------------------------------------
G- |--------------------------|--------------------------------------------------------------------------------------------------
D- |--------------------------|---% 4x’s---------------------------------------------------------------------------------------
A- |----0-------------------- |--------------------------------------------------------------------------------------------------
E- |-------------------------- |--------------------------------------------------------------------------------------------------

Comments