Spacemen 3 - Come Down Easy Chords & Tabs

 

Come Down Easy Chords & Tabs

Spacemen 3 Chords & Tabs

Version: 1 Type: Bass Tab

Come Down Easy Bass Tab

Intro:          
G|---------------------------------------------------------------------------------|
D|------1--3-----------------------------------------------------------------------|
A|---3-----------------------------------------------------------------------------|
E|---------------------------------------------------------------------------------|

Verse/Chorus:
G|---------------------------------------------------------------------------------|
D|---------------------------------------------------------------------------------|
A|---------------------------------------------------------------------------------|
E|--1-1-1-1-1-1-1-1-1-1-1-1-1-1-1-1-1-1-etc.---------------------------------------|
[ Tab from: http://www.guitartabs.cc/tabs/s/spacemen_3/come_down_easy_btab.html ]
Turnaround 1:
G|---------------------------------------------------------------------------------|
D|---10---8---6---3-------------------------------------------------------------|
A|---------------------------------------------------------------------------------|
E|---------------------------------------------------------------------------------|

Turnaround 2:
G|--------10-10-10-10-10-10-10-10/---------------------------------------------------------------------|
D|---------------------------------------------------------------------------------|
A|---------------------------------------------------------------------------------|
E|---------------------------------------------------------------------------------|