Spacehog - In The Meantime Chords & Tabs

 

In The Meantime Chords & Tabs

Spacehog Chords & Tabs

Version: 3 Type: Bass Tab

In The Meantime Bass Tab

This is the Intro and goes somewhat into the chorus.
Intro/Verse
G|-----------------------------7h9-| \   / 888
D|-----6-6-7-8-9---------------7h9-|  \ /     8
A|-7-7----------6-6-7--8-9-9-------|  / \   88 
E|---------------------------2-----| /   \    8
                                           888
Intro to Chorus:
G|-7-7-7-7----------------9999999-|
D|---------7-7-7-7----------------|
A|-----------------7-7-7-7--------|
E|--------------------------------|

Chorus:
G|--------------------------|   \   / 888
D|----0-0-------------------|    \ /     8
A|-0-0------2-4-2-4-2-4-2---|    / \   88 
E|-------2-2-------------4-2|   /   \    8
                                      888
Chorus End:
G|--------------
D|--------------
A|----7------5-3
E|-5-5---3-3----
[ Tab from: http://www.guitartabs.cc/tabs/s/spacehog/in_the_meantime_btab_ver_3.html ]