Spacehog - In The Meantime Chords & Tabs

 

In The Meantime Chords & Tabs

Spacehog Chords & Tabs

Version: 1 Type: Bass Tab 0 ratings
1 star 2 stars 3 stars 4 stars 5 stars
comments

In The Meantime Bass Tab

I know you already have a version of this song "In the Meantime" by 
Spacehog, but this version works alot better with the song on the Resident 
Alien album. Trust me.




[ Tab from: http://www.guitartabs.cc/tabs/s/spacehog/in_the_meantime_btab.html ]
Beg.
G|--------------------------------------------7h9h7-----------------|
D|-------------6--7--8--9------------------------------7h9h7--------|
A|----------7---------------6--7--8--9/9----------------------------|
E|--0----0---------------------------------2------------------------|
Lead up to chorus
G|-7-7-7-7----------------------------------------------------------|
D|----------7-7-7-7-------------------------------------------------|
A|-------------------7-7-7-7-7/7/7/7/7/7/7/7------------------------| 
E|------------------------------------------------------------------|
Chorus
G|------------------------------------------------------------------| 
D|------------------------------------------------------------------|
A|-------5-5------2h3h2h3h2h3-0-------------------------------------|
E|--5-5-------2-2---------------------------------------------------|
Chorus end
G|------------------------------------------------------------------| 
D|------------------------------------------------------------------|
A|------------------------------------------------------------------|
E|---5-5-5-5--3-3-3-3-3--2-2-2-2-2/2/2/2/2/2------------------------|
Chorus end (2nd time)
G|------------------------------------------------------------------| 
D|------------------------------------------------------------------|
A|------------------------------------------------------------------|
E|---5-5-5-5--3-3-3-3-3--2-2-2-2-2/2/2/2/2/2/1-1--------------------|
solo
G|------------------------------------------------------------------|
D|--------------4-4-5-5-7-7-----------------------------------------|
A|--3-3----5-5------------------------------------------------------|
E|-----------------------------3-3-3-3-2-2-2-2-0-0-0-0-00-00-00-00--|

G|------------------------------------------------------------------|
D|--------------1-1-2-2-4-4-----------------------------------------|
A|--3-3----2-2------------------------------------------------------|
E|---------------------------------12/12-11-10-9-8/8-7-6------------|

The song goes in this order
Beg. play it 2 times
lead up to Chorus 1 time
chorus 3 times
chorus end 1 time
beg. 3 times
lead up to chorus 1 time
chorus 3 times
chorus end 1 time
beg. play 3 times
lead up to Chorus 1 time
chorus 3 times chorus end (2nd time) 1 time
solo one time
chorus end until end of song

-Patrick DePriest (afaasfd@hotmail.com)

Comments