Southborder - Sweet Chords & Tabs

 

Sweet Chords & Tabs

Southborder Chords & Tabs

Version: 1 Type: Tab 0 ratings
1 star 2 stars 3 stars 4 stars 5 stars
comments

Sweet Tab

   
South Border - Sweet
Tabbed by: Franklin Dean
-----------------------------------------------------------------------------
TUNING: Standard tuning
 6  5  4  3  2  1   (String Number)
|E |A |D |G |B |E | (Low to high)
-----------------------------------------------------------------------------
NOTE: I saw this song on TV while on vacation in the Philippines and I really
liked this song, especially the opening. This song is a very typical R&B style
song, guitar wise. Simple 2-3 chord progression with a little riff repeated
throughout the whole song. Not very hard at all. As always, have fun, good
luck, and don't give up.
-----------------------------------------------------------------------------
DIFFICULTY LEVEL: Easy to Medium
-----------------------------------------------------------------------------

e|---4-----3---3-----|----------------------|
B|---6-----4---3h4---|---4s6p4-2-1----------|
G|---5-----3---3-----|-------------1s3p1~---|
D|---6-----5---5-----|----------------------|
A|---4-----3---3-----|----------------------|
E|---x-----x---------|----------------------|

*This riff is looped throughout the whole song! Easy lang!
-----------------------------------------------------------------------------
Copywrite ęBrown Hand Records
[ Tab from: http://www.guitartabs.cc/tabs/s/southborder/sweet_tab.html ]
Comments