South Border - Rainbow Chords & Tabs

 

Rainbow Chords & Tabs

South Border Chords & Tabs

Version: 2 Type: Tab 1 rating
1 star 2 stars 3 stars 4 stars 5 stars
comments

Rainbow Tab

   
Song: Rainbow
Band: Southborder
Tabbed By: Levy Aleman (levyshady@myway.com)
Standard Tuning w/ Capo on 1st Fret

Intro/Verse:
Riff 1
e|--------0--------------------
B|--------0--------------------
G|--------1---------2h4p2---2--
D|-----2--2-------2-------2----
A|---2----2-----2--------------
E|-0----------0----------------
Riff 2          
e|--------0--------------------
B|--------0--------------------
G|--------1---------2h4p2---4--
D|-----2--2-------2-------2----
A|---2----2-----2--------------
E|-0----------0----------------
Riff 3
e|-----------------------------
B|--------3--------------------
G|--------4--------2--------4--
D|-----5--5--------2-----4--4--
A|---5----------4--4---2-------
E|-3----------2----------------
Riff 4
e|-------0---------------0---------
B|-----0---0---0-------0---0---0---
G|---2-------2-------2-------2-----
D|-0---------------0---------------
A|---------------------------------
E|---------------------------------

Verse 1:
(Play Riff 1)
Fallin out fallin in 
(Play Riff 2)
Nothings sure in this world no no 
(Play Riff 1)
Breaking down breaking in 
(Play Riff 2)
Never knowing what lies ahead 
(Play Riff 3)
We can really never tell it all no no 

[REPEAT INTRO]

Verse 2:
[Same pattern Dawg!!!]
Say goodbye say hello 
To a lover or friend 
Sometimes we could never understand 
Why some things begin with just love 
We can never have it all 
No no no ohh 

Pre-Chorus:
    G#m-G#m7	  C#m7
But oh, can't you see 
	CM7
That no matter what happens 
Aadd9
Life goes on and on 
       G#m-G#m7  C#m7	
And so baby just smile 
	CM7
Coz I'm always around you
(Play Riff 4)
And I'll make you see 
How beautiful life is for you and me 
[ Tab from: http://www.guitartabs.cc/tabs/s/south_border/rainbow_tab_ver_2.html ]
Chorus:
       E
Take a little time baby 
	Esus4/F#
See the butterflies' colors 
       F#m11(no5)		 G#m      G#m7   C#m7
Listen to the birds that sent to sing for me and you 
	F#   F#7
Can you feel me 
	F#m7		 B11(no5)-B7add11(no5)-B11(no5)
This is such a wonderful place to me 

	E
Even if there is pain now 
Esus4/F#
Everything will be alright 
       F#m11(no5)	
For as long as the world still turns 
G#m	      G#m7	C#m7
There will be night and day 
	F#   F#7
Can you hear me 
	  F#m7			   B11(no5)-B7add11(no5)-B11(no5)
There's a rainbow always after the rain
(Play Riff 1 right after Chorus man!]

Verse 3:
[Same Pattern just like the other verses]
Hittin high hittin low 
Win or lose you should go 
Yeah yeah 
Getting warm getting cold 
Weather can be so good or bad 
But baby this is life so don't get mad 
No no no 

[REPEAT PRE-CHORUS]

Bridge:
G#7
Life's full of challenges
    G#	    G#7			C#m7
Not all the time we get what we want 
But don't despair my dear
G#7
You'll take it each trial 
	   G#      G#m7	       C#m7
And you'll make it through the storm 
Coz you're strong 
   	    F#	   F#7
My faith in you is clear 
     AM7      G#m7
So I say once again 
	     F#m7
This world's beautiful 
       AM7	 G#m7 		 Gm7
Let us celebrate life that is so beautiful 
   C7sus4-C7
So beautiful... 

[REPEAT CHORUS 1/2 note HIGHER OK!!!] 
or just adjust the capo from 1st to the 2nd fret for you to make it easier...

				=CHORDS USED=
		E A D G B E					E A D G B E
Gm7 		3-5-3-3-3-3			Esus4/F#	2-0-2-2-0-0

G#m		4-6-4-5-4-4			E		0-2-2-1-0-0

G#m7		4-6-4-4-4-4			B11(no5)	0-2-1-2-2-0

CM7		0-3-2-0-0-0			B7add11(no5)	0-2-1-2-0-0

C#m7		4-6-4-4-4-4			F#m11(no5)	4-0-4-4-0-0

C7sus4		3-3-5-3-6-3			F#		2-4-4-3-2-2

C7		3-3-5-3-5-3			F#7		2-4-2-3-2-2

AM7		0-0-2-1-2-0			F#m7		2-4-2-2-2-2

Aadd9		0-2-2-2-2-0  		
Comments