South - Paint The Silence Chords & Tabs

 

Paint The Silence Chords & Tabs

South Chords & Tabs

Version: 3 Type: Tab 0 ratings
1 star 2 stars 3 stars 4 stars 5 stars
comments

Paint The Silence Tab

"Paint the Silence" by South
Hey guys this is one of my favorite songs. I got it off the first OC Soundtrack and i've 
listenin to it in unhealthy amounts.
This is my first time posting a tab so i hope you like it it sounds pretty much right to 
but email me with any comments or improvements. Thanx~


Intro + Verse + Chorus (Basically the whole song)

Guitar 1

e------------------------------------------------------------------------|
b------------------------------------------------------------------------|
g-----------------7 / 9--------------------------------------------------|
d---4-----7-------7 / 9--------------------------------------------------|
a---4-----7-------5 / 7--------------------------------------------------|
e---2-----5-------0 / 0--------------------------------------------------|
_____________________________________________________________________________

Guitar 2

Here's the little riff that comes during like the second verse
[ Tab from: http://www.guitartabs.cc/tabs/s/south/paint_the_silence_tab_ver_3.html ]
e---------------------------------------------------------------------------|
b---------------------------------------------------------------------------|
g-----------------9---------7-----------------------------------------------|
d--------7 / 9---------9---------9----7----6--------------------------------|
a---5-----------------------------------------------------------------------|
e---------------------------------------------------------------------------|

Then through the rest of the verse it's this several times.

e----------------------------------------------------------------------------|
b----------------------------------------------------------------------------|
g--------------9---------9---------7---------7--(sometimes he does 7h9)------|
d-------7/9---------9---------9---------9------------------------------------|
a----5-----------------------------------------------------------------------|
e----------------------------------------------------------------------------|

e---------------------------------------------------------------------------|
b---------------------------------------------------------------------------|
g-----------------9---------7-----------------------------------------------|
d--------7 / 9---------9---------9----7----6--------------------------------|
a---5-----------------------------------------------------------------------|
e---------------------------------------------------------------------------|

It just repeats this over and over. Listen to the song to get timing and when to come in 
Have fun. IF anyone can figure out the keyboard and other effects on guitar please let 
know. Thanx~
Comments