Soundtrack Of Our Lives - Ten Years Ahead Chords & Tabs

 

Ten Years Ahead Chords & Tabs

Soundtrack Of Our Lives Chords & Tabs

Version: 1 Type: Tab 0 ratings
1 star 2 stars 3 stars 4 stars 5 stars
comments

Ten Years Ahead Tab

The Soundtrack Of Our Lives
Ten Years Ahead

Capo 1


--------------------------------------------------------3-3-3--2--0-----2-----|
------3-3-------------3-3-------------3-3---------------3------------3--------|
-2-2--2-2---0-0-0h2-2-2-2---0-0-0h2-2-2-2---0-0-0h2-2---2---------------------|
-0-0--0-0---0---0-0---0-0---0---0-0---0-0---0---0-0-----0---------------------|
------------------------------------------------------------------------------|
------------------------------------------------------------------------------|


------------------------------------------------------------------------------|
----3-3--------------3-3--3----3------------1-1------------------1----1-------|
-2--2-2---0-0-0h2-2--2-2--2----2----0--0-0--0-0---0---0-0--------0----0-------|
-0--0-0---0---0-0----0-0--0----0----0--2-2--2-2---0-0-0h2-2------2----2-------|
---------------------------------------3-3--3-3---3---3-3--------3----3-------|
------------------------------------------------------------------------------|
                          Well it's so good           , I didn't have to

------------------------------------------------------------------------------|
----------------3--3---------------3-3---------------1-1----------------------|
-------2--2-----2--2----0-0-0h2-2--2-2---0-0----0-0--0-0----0---0-0-----------|
-0-0---0--0-----0--0----0---0-0----0-0---0-0----2-2--2-2----0-0-0h2-2---------|
-3-3--------------------------------------------3-3--3-3----3---3-3-----------|
------------------------------------------------------------------------------|
       make it.                        It's so good               I didn't

---------------------------------------7--------------------------------------|
-1----1-------------------3--3--3------8-10-8----------------------7-8-8-8-8--|
-0----0-------2--2--------2--0--2------7------7-----0-4-5--------7------------|
-2----2--0-0--0--0--------0--0--0----------------------------0-7--------------|
-3----3--3-3------------------------------------------------------------------|
-------------------------------------------------3----------------------------|
 have to      break it.     Cause I'm  ten       years ahead,         and

------------7-----------------------------------------------1----7------------|
--8----7----8-10-8-------------------8-7------------------1------8-10-8-------|
------------7------7-----0-4-5-------7---9-9--7---------2-----0--7------------|
--------------------------------0----7-----------7----3-----------------------|
------------------------------------------------------------------------------|
-----------------------3------------------------------------------------------|
  your the echo of the things I say,          yes I'm ten     years ahead....

------------------------------------------------------------------------------|
-8--7--------------------------1--1-----------------1--1----------------------|
-7-------7--7------------0--0--0--0---0---0-0-------0--0--------2--2----------|
-7-----------------------2--2--2--2---0-0-0h2-2-----2--2---0-0--0--0----------|
-------------------------3--3--3--3---3---3-3-------3--3---3-3----------------|
------------------------------------------------------------------------------|
                 It's so hard             I didn't want to      guide you.

------------------------------------------------------------------------------|
-3--3---------------3-3----------------------1-1----------------1--1----------|
-2--2----0-0-0h2-2--2-2-----0--0--------0-0--0-0---0---0-0------0--0----------|
-0--0----0---0-0----0-0-----0--0--------2-2--2-2---0-0-0h2-2----2--2---0-0----|
----------------------------------------3-3--3-3---3---3-3------3--3---3-3----|
------------------------------------------------------------------------------|
                        Right from the start             I only wanted to

------------------------------------------------------------------------------|
-------------3---3--3-3--3-----------1--1--------------1--1-----1-------------|
-2--2--------2---2--2-2--0--0---0----0--0---0---0-0----0--0-----0-------------|
-0--0--------0---0--0-0--0--2---2----2--2---0-0-0h2-2--2--2-----2-------------|
----------------------------3---3----3--3---3---3-3----3--3-----3-------------|
------------------------------------------------------------------------------|
 please you, didn't mean to kill you.                        But I'm

-7-----------------------------------------------7----------------------------|
-8-10-8----------------------7-8-8-8-8-8----7----8-10-8-----------------------|
-7------7-----0-4-5--------7---------------------7------7-----0-4-5-----------|
-----------------------0-7-------------------------------------------0--------|
------------------------------------------------------------------------------|
-----------3------------------------------------------------3-----------------|
 ten       years ahead,           and  your the echo of the things I say

-----------------------1---7-------------10-----------------------------------|
-8-7-----------------1-------10-8--------10-----------------------------------|
-7---9-9-7---------2-----0---------------11-----------------------------------|
-7---------7-----3------------------------------------------------------------|
------------------------------------------------------------------------------|
------------------------------------------------------------------------------|
         yes I'm ten     years ahead....
[ Tab from: http://www.guitartabs.cc/tabs/s/soundtrack_of_our_lives/ten_years_ahead_tab.html ]
------------------------------------------------------------------------------|
-7-7---------7----5-5---------5-----3-3---------3-----7-7---------7-----------|
------7----7---7-------5----5---5--------4----4---4--------7----7---7---------|
--------7----------------7-----------------5-----------------7----------------|
------------------------------------------------------------------------------|
------------------------------------------------------------------------------|


---------------------------------------------------------2-----3--2-----------|
-7-7---------7----5-5---------5-----3-3---------3--------3-----3--------------|
------7----7---7-------5----5---5--------4----4---4------2-----2--------------|
--------7----------------7-----------------5-------------0-----0--------------|
------------------------------------------------------------------------------|
------------------------------------------------------------------------------|


--------------------8----------------------------------------5-3-2-0----------|
----------------------8-5-----5h6-5--------------------------3-------3---3----|
---------------------------5---------5-----------------------2---------2------|
------------------------------------------------------------------------------|
------------------------------------------------------------------------------|
------------------------------------------------------------------------------|
 Well it's no good                      revolving around me.

---------------------5--5-----------------8-----------------------------------|
---------------1----------------------------5---------------------------------|
-------------2-------5----5---5-------------------5--7------------------------|
----------------------------7-------------------------------------------------|
------------------------------------------------------------------------------|
------------------------------------------------------------------------------|
 You know you shouldn't______       try to stay behind me, when you

--3-2-0----------------------8---------------7--------------------------------|
---------3---1-------------------------------8-10-8---------------------------|
-----------------0---------5-----------------7------7----0-4-5----------------|
--------------------2---------------------------------------------------------|
-----------------------3------------------------------------------------------|
------------------------------------------------------3-----------------------|
 cannot reach me.                  Cause I'm ten      years ahead,

-------------------------7-----------------------------------------------1----|
-------7--8-8-8-8-8--7---8-10-8-------------------8-7------------------1------|
-----7-------------------7-------7-----0-4-5------7---9-9-7---7------2--------|
-0-7-----------------------------------------0----7---------7------3----------|
------------------------------------------------------------------------------|
-------------------------------------3----------------------------------------|
            and your the echo of the words I say,         yes  I'm ten

----7---------------10--------------------------------------------------------|
------10-8----------------------7-7---------7----5-5---------5----3-3---------|
-0---------------7-------------------7----7---7-------5----5---5-------4------|
---------------7-----------------------7----------------7----------------5----|
-------------5----------------------------------------------------------------|
------------------------------------------------------------------------------|
 years  ahead.

------------------------------------------------------------------------------|
---3-------7-7---------7--------7-7--------7-----5-5---------5----3-3---------|
-4---4----------7----7---7----------7----7---7--------5----5---5-------4------|
------------------7-------------------7-----------------7----------------5----|
------------------------------------------------------------------------------|
------------------------------------------------------------------------------|


------------------------------------------------------------------------------|
---3-------7-7---------7--------7-7--------7-----5-5---------5----3-3---------|
-4---4----------7----7---7----------7----7---7--------5----5---5-------4------|
------------------7-------------------7-----------------7----------------5----|
------------------------------------------------------------------------------|
------------------------------------------------------------------------------|


------------------------------------------------------------------------------|
---3-------7-7---------7--------7-7--------7-----5-5---------5----3-3---------|
-4---4----------7----7---7----------7----7---7--------5----5---5-------4------|
------------------7-------------------7-----------------7----------------5----|
------------------------------------------------------------------------------|
------------------------------------------------------------------------------|


------------------------------------------------------------------------------|
---3----------3---------------------------------------------------------------|
-4---4--------2---------------------------------------------------------------|
--------------0---------------------------------------------------------------|
------------------------------------------------------------------------------|
------------------------------------------------------------------------------|
Comments