Soundtrack Of Our Lives - Sister Surround Chords & Tabs

 

Sister Surround Chords & Tabs

Soundtrack Of Our Lives Chords & Tabs

Version: 1 Type: Tab 0 ratings
1 star 2 stars 3 stars 4 stars 5 stars
comments

Sister Surround Tab

   
Sister Surround - The Soundtrack of Our Lives

Intro
-----

Gitarr 1 (x24)

e--------10--------|
B-----10-----------|
G--11--------------|
D------------------|
A------------------|
E------------------|

(C,G)* D x 2

(G,D) (G,F) x 6

Vers 1
-------
(G)                     (D)     (G,F)
You're a rhyme without a reason

(G)               (D)    (G,F)
And you know it so well

(Bb)                 (C)
Who's the king of the season

(F)               (D)
Well you never can tell

(G)                    (D)   (G,F) 
Though it's so plain to see

(G)                     (D)      (G,F)
You think you like to be normal

(G)                (D)      (G,F)
You think you're in control

(Bb)              (C)       (F)       (D)
But the action you take only makes you small

(G)                        (D)  (G,F)
Just like the way it should be


Ref 
------
(Bb)     (C)     (D)     (D)
Surround sister take care of me

(Bb)       (C)   (D)     (D)
Surround sister take care of me

Gitarr 1 kör en slinga (under D-ackordet) som går så här:
[ Tab from: http://www.guitartabs.cc/tabs/s/soundtrack_of_our_lives/sister_surround_tab.html ]
e-55-3-2-0---------|
B-33-------3-------|
G------------------|
D------------------|
A------------------|
E------------------|


Vers 2 (samma som Vers 1)
------
Gitarr 1 kör en liten melodislinga igen:

e---15---------15--------|---14---------------------|
B-15--15-19-15----19-15--|-15--15-18-15-19-18-15----|
G------------------------|--------------------------|
D------------------------|--------------------------|
A------------------------|--------------------------|
E------------------------|--------------------------|



Ref 2
------
(Bb)     (C)     (D)     (D)
Surround sister take care of me

(Bb)       (C)   (D)     (D)
Surround sister take care of me

(Bb)     (C)
Surround sister

Mellanspel efter Ref 2
----------------------

F           G           
Cause I'm not afraid to fall

F)      G          
I'm not afraid to fall

F           (C,G)
No, I'm not afraid to fall


D D D (C,G) x3

(C,G)* D x 4 (med samma slinga som i introt)

Ref 3

Ref 2
------
(Bb)     (C)     (D)     (D)
Surround sister take care of me

(Bb)       (C)   (D)     (D)
Surround sister take care of me

(Bb)     (C)
Surround sister

F           G           
Cause I'm not afraid to fall

(Bb,C) D
Comments