Soundtrack Of Our Lives - Broken Imaginary Time Chords & Tabs

 

Broken Imaginary Time Chords & Tabs

Soundtrack Of Our Lives Chords & Tabs

Version: 2 Type: Tab 0 ratings
1 star 2 stars 3 stars 4 stars 5 stars
comments

Broken Imaginary Time Tab

   
Broken Imaginary Time - The Soundtrack of Our Lives

Intro:
------

e------------------|----------------|-0-------------|-------0----|
B--3---0-2-3---0-2-|3---0-2-3-2-0---|---3-----3-----|-----0------|
G------------------|--------------0-|-----4-----4---|---1--------|
D----4-------5-----|--6-------------|-------3-----6-|-2----------|
A------------------|----------------|---------------|------------|
E------------------|----------------|---------------|------------|

Spelas tre g?nger

Vers
----
It's the end of a broken imaginary time...

Bm                  G         D     Bm               F#
e------------------|----------------|---------------|--------------------|
B-----3------3-----|-------------3--|-----3------3--|--------------------|
G------4-------4---|-----4-----2--2-|------4-------4|-----3--------------|
D---4------4-------|---5---5-0------|---4------4----|---4---4---4---4----|
A-2------1---------|----------------|-2------2------|---------2---4------|
E------------------|-3--------------|---------------|-2------------------|
[ Tab from: http://www.guitartabs.cc/tabs/s/soundtrack_of_our_lives/broken_imaginary_time_tab_ver_2.html ]
Bm                  G         D     Bm               F#
e------------------|----------------|---------------|--------------------|
B-----3------3-----|-------------3--|-----3------3--|--------------------|
G------4-------4---|-----4-----2--2-|------4-------4|-----3--------------|
D---4------4-------|---5---5-0------|---4------4----|---4---4---4---4----|
A-2------1---------|----------------|-2------2------|---------2---4------|
E------------------|-3--------------|---------------|-2------------------|

Bm                           G       D       Bm      F#
e------------------|----------------|---------------|--------------------|
B-----3------3-----|-----3----------|-----3------3--|--------------------|
G------4-------4---|-------4-----4--|---2--2-------4|-----3--------------|
D---4------4-------|---4-------5---5|-0--------4----|---4---4---4---4----|
A-2------1---------|-0--------------|--------2------|---------2---4------|
E------------------|---------3------|---------------|-2------------------|


Mellanspel
----------

Bm       G          G#m      G       F               E
e------------------|----------------|---------------|-----------0--------|
B-----3------3-----|-----3-------3--|---------3-----|---------0---0------|
G------4-------4---|------4-------4-|-------4---4---|-------1-------1----|
D---4------4-------|---4-------4----|-----3-------3-|-----2-----------2--|
A-2----------------|----------------|---2----------2|---2----------------|
E--------3--------3|-4-----4-3------|-1-------------|-0------------------|
Comments