Soundgarden - The Day I Tried To Live Chords & Tabs

 

The Day I Tried To Live Chords & Tabs

Soundgarden Chords & Tabs

Version: 1 Type: Bass Tab 0 ratings
1 star 2 stars 3 stars 4 stars 5 stars
comments

The Day I Tried To Live Bass Tab

                "The Day I Tried to Live"
       by Soundgarden from the album "Superunknown"
        Tabbed by Dave Miller (dwm3@po.cwru.edu)


         Verse                                                                            
||--------------------------------------------------
||*-------------------------------------------------
||*-------------------------------------------------
||---12-12-12-12-12-12-11-0-10-0-9-0-8-8-8-8-8-8-7-0-5-5-5-5-5-
       I woke the same...                                                                                          
[ Tab from: http://www.guitartabs.cc/tabs/s/soundgarden/the_day_i_tried_to_live_btab.html ]
           Chorus                    
||----------------------------------
||*---------------------------------
||*---------------------------------
||----7/12-----9-----0-----0--0--0--
       One more time around...                                                                                          

          Bridge                                     
||----------------------------------------------
||*---------------------------------------------
||*---------------------------------------------
||----7--7--7--7--7--7-----8--8--8--8--8--8-----



        Leads into verse after bridge                                                     
||----------------------------------------------
||*---------------------------------------------
||*---------------------------------------------
||---9-9-9-9-9-9-8-0-7-0-6-0-5-5-5-5-5-5-4-0-3-3-3-3-3-
                                                                                          

Comments