Soundgarden - Superunknown Chords & Tabs

 

Superunknown Chords & Tabs

Soundgarden Chords & Tabs

Version: 6 Type: Tab 0 ratings
1 star 2 stars 3 stars 4 stars 5 stars
comments

Superunknown Tab

   
song: Superunknown
artist: Soundgarden
album: Superunknown

tuning: drop D (D A D G B E)

this is basically all parts to the song except the lead stuff

intro
-------------------------|
--------------0------0---|
-3h5p3p0----3------0-----|
----------5------3-------|
-------------------------|
-------------------------|

verse                                         1st              2nd
----------------------       ---------------------|------------|
----------------------       ---------------------|------------|
----------------------       -----0-----0---------|------------|
-----0-----0----------       ---0-----0---3h5p3p0-|------------|
---0-----0----3h5p3p0-       -5-----3-------------|---3h5p3p0--|
-5-----3-------------- 23x   ---------------------|------------|

pre-chorus   (play 3x)
----------------------------------------------------|
----------------------------------------------------|
----------------------------------------------------|
-5--5--5-----9--9--9----5\3---3~--7~--7p5---5----5--|
-0--0--0-----0--0--0----x-----x-----------0----0----|
------------------------5\3---3~--------------------|
[ Tab from: http://www.guitartabs.cc/tabs/s/soundgarden/superunknown_tab_ver_6.html ]
pre-chorus 2 (let all notes ring)
------------------------------------------|
------------------------------------------|
-----0-----0-----0-----0------------------|
---0-----0-----0-----0-------0-----0------|
-5-----3-----2-----3-------0-----0--------|
-------------------------3-----2------0---|

chorus
----------------------------------------------------------------------------|
----------------------------------------------------------------------------|
----------------------------------------------------------------------------|
-6----5~---5--3-----5--6--5---3~----3----5--6--5---3~---3-----5--6--5---3~--|
-x----x~---x--x-----x--x--x---x~----x----x--x--x---x~---x-----x--x--x---x~--|
-6----5~---5--3-----5--6--5---3~----3----5--6--5---3~---3-----5--6--5---3---|

------------------------------------------------------------------------|
------------------------------------------------------------------------|
------------------------------------------------------------------------|
-6----5~---5--3----5--6--5---3~---3---6----5~--5--3---5--6--5---3~--3---|
-x----x~---x--x----x--x--x---x~---x---x----x~--x--x---x--x--x---x~--x---|
-6----5~---5--3----5--6--5---3~---3---6----5~--5--3---5--6--5---3~--3---|

-------------------------------------------------------------------|
-------------------------------------------------------------------|
-------------------------------------------------------------------|
-5--5--5--5--5--5--5--5----3---3--3--3--3--3-----------------------|
-x--x--x--x--x--x--x--x----x---x--x--x--x--x-----------------------|
-5--5--5--5--5--5--5--5----3---3--3--3--3--3--0---3-2-0--3-2--0---|

Hope you enjoy it. email me at sixstringz89@netscape.net if you have questions.
Comments