Soundgarden - Super Unknown Chords & Tabs

 

Super Unknown Chords & Tabs

Soundgarden Chords & Tabs

Version: 1 Type: Tab 0 ratings
1 star 2 stars 3 stars 4 stars 5 stars
comments

Super Unknown Tab

#----------------------------------PLEASE NOTE---------------------------------#
#This file is the author's own work and represents their interpretation of the #
#song. You may only use this file for private study, scholarship, or research. #
#------------------------------------------------------------------------------##
Superunknown
by soundgarden
transcibed Kelly Kristek..
(kkr@connected.com)
This isn't the whole thing by far but i posted how much i have 
figured out i dont know if it's right you'll have to try it.. 
and tell me..Corrections comments and full versions are very welcome.
--------------------------------------------------------------------
[ Tab from: http://www.guitartabs.cc/tabs/s/soundgarden/super_unknown_tab.html ]
  Drop D tuning..          Repeat
                            this
  repeat this some..       a bunch
e:------------------------|------|-------------------------------|
B:---------------0-----0--|------|-------------------------------|
G:--3h5p3p0----0-----0----|------|---5--3-3--7--7-5--5-let-ring..|
D:-----------5-----3------|-5--3-|-------------------------------|
A:------------------------|-5--3-|-------------------------------|
E:------------------------|-5--3-|-------------------------------|
                           if..   sense...

                                  Play this under the
                                  solo..and after riff
   riff 3                         3.
e:----------------|--------------|--------------------|
B:----------------|------0---0---|--------------------|
G:----------------|--3h5---5---5-|--------------------|
D:-5--3--2-3-2--0-|--------------|--7--5-5--3-5-7-5-3-|
A:-5--3--2-3-2--0-|--------------|--7--5-5--3-5-7-5-3-|
E:-5--3--2-3-2--0-|--------------|--7--5-5--3-5-7-5-3-|
  First it steals..

   Out tro.                                      I dont know the
                                                 last chord...

e:----------------------------------------------------------------|
B:----------------------------------------------------------------|
G:---------------0-----0-----0-----0------0------0----------------|
D:--3h5p3p0----0-----0-----0-----0------0------0------------------|
A:-----------3-----1-----0-----1----------------------------------|
E:------------------------------------3------2------0--let-ring...|


Comments