Soundgarden - Spoonman Chords & Tabs

 

Spoonman Chords & Tabs

Soundgarden Chords & Tabs

Version: 1 Type: Tab 0 ratings
1 star 2 stars 3 stars 4 stars 5 stars
comments

Spoonman Tab

                     Sound garden
		Spoon man

Hey this is my first tab so bear with me ok…send me e-mails of what u thought.
Here we go!

e -----10----h-----12-----12----------           (drop d tuning)
b -----10-----h----12-----12---------
g -----10----h-----12------12---------
d -----10----h-----12------12--------        
a ------10---h------12-----12---------    (h=hammer on)
e ------10---h------12-----12---------

e ------10-------7------5----3------0---
b -----10---------7-----5-----3-----0---
g -----10--------7------5-----3-----0----
d ------10-------7------5-----3------0---      
a -----10--------7-------5----3------0---
e -----10--------7-------5----3------0---
[ Tab from: http://www.guitartabs.cc/tabs/s/soundgarden/spoonman_tab.html ]
e ------3-----h------5-----5----0----0----
b ------3-----h------5-----5----0----0--
g -------3----h------5-----5----0----0--
d -------3----h------5-----5----0----0---
a ------3-----h------5------5---0----0--
e ------3------h-----5------5---0----0---

repeat 2x
part 2

e ----------------------------------------
b ----------------------------------------
g -----------------------------------------
d ------------------------------------------        
a --------p--------p-------p---p-----p-------
e -----5---3----5--3---5--3--0--5--3----     (p=pulloff)
 


e -----------------------------
b -----------------------------
g ------p-----------------------
d ----5--3--------------------        
a -----------------------------
e -----------------------------


e -----------------------------
b -----------------------------
g -----------------------------
d --------p-----p----------------        
a ----5-----3----0--------
e -----------------------------

That’s it easy (I hope explained the last part well!)
Comments