Soundgarden - Spoonman Chords & Tabs

 

Spoonman Chords & Tabs

Soundgarden Chords & Tabs

Version: 3 Type: Bass Tab 1 rating
1 star 2 stars 3 stars 4 stars 5 stars
comments

Spoonman Bass Tab

Song: Spoonman
Artist: Soundgarden
Album: Superunknown

wow... people need to learn how to tab songs correctly..

Verse:
G--------------------------------------------------------
D--------------------------------------------------------
A--------------------------------------------------------
D-10h12-12-12-12--12-10--12-7--5--7-3-0-0-3h5-5-5-0-0-0--

Variation:
G------------------------------
D------------------------------
A------------------------------
D-10h12-12-12-12--12-10--12-5--

Chorus:
G-------------------------------
D--------------------5-3--------
A------------------------5-3-0--
D-3-5-3-5-3-5-0-5--3------------
[ Tab from: http://www.guitartabs.cc/tabs/s/soundgarden/spoonman_btab_ver_3.html ]
Bridge:
G-------------------------------
D---------------5--3------------
A-5-3-5-3-5-3-0------5-3--------
D------------------------5-3-0--

bridge variation:
G------------------------------------
D------------------------------------
A-5-3-5-3-5-3-0-----5-3-5-3-5-3-0----
D---------------3-----------------5--

very easy song...

order of riffs:
verse x 4
variation x 1
verse x 1
variation x 1
verse x 2
chorus x 4
verse x 2
variation x 1
verse x 1
variation x 1
verse x 2
chorus x 4
verse x 4
bridge x 4
bridge variation x 1
rest 8 measures while Spoonman plays...
bridge x 16
chorus x 4
verse x 4
variation x 1
half of verse x 1
Comments